  0
SECTION
  2
HEADER
  9
$ACADVER
  1
AC1009
  9
$DWGCODEPAGE
  3
dos932
  9
$EXTMIN
 10
0.0
 20
0.0
 30
0.0
  9
$EXTMAX
 10
297.0
 20
210.0
 30
0.0
  9
$LIMMIN
 10
0.0
 20
0.0
  9
$LIMMAX
 10
297.0
 20
210.0
  9
$LTSCALE
 40
1.0
  9
$PDMODE
 70
     0
  0
ENDSEC
  0
SECTION
  2
TABLES
  0
TABLE
  2
VPORT
 70
     1
  0
VPORT
  2
*ACTIVE
 70
     0
 10
0.0
 20
0.0
 11
1.0
 21
1.0
 12
148.5
 22
105.0
 13
0.0
 23
0.0
 14
10.0
 24
10.0
 15
10.0
 25
10.0
 16
0.0
 26
0.0
 36
1.0
 17
0.0
 27
0.0
 37
0.0
 40
297.0
 41
1.414285714
 42
50.0
 43
0.0
 44
0.0
 50
0.0
 51
0.0
 71
     0
 72
  1000
 73
     1
 74
     3
 75
     0
 76
     0
 77
     0
 78
     0
  0
ENDTAB
  0
TABLE
  2
LTYPE
 70
     5
  0
LTYPE
  2
CONTINUOUS
 70
    64
  3
Solid line
 72
    65
 73
     0
 40
0.0
  0
LTYPE
  2
LTYPE1
 70
    64
  3
CENTER
 72
    65
 73
     4
 40
5.0
 49
3.5
 49
-0.5
 49
0.5
 49
-0.5
  0
LTYPE
  2
LTYPE2
 70
    64
  3
CENTER
 72
    65
 73
     4
 40
15.0
 49
10.5
 49
-1.5
 49
1.5
 49
-1.5
  0
LTYPE
  2
LTYPE3
 70
    64
  3
HIDDEN
 72
    65
 73
     2
 40
3.0
 49
1.8
 49
-1.2
  0
LTYPE
  2
LTYPE4
 70
    64
  3
HIDDEN
 72
    65
 73
     2
 40
1.0
 49
0.6
 49
-0.4
  0
ENDTAB
  0
TABLE
  2
LAYER
 70
   128
  0
LAYER
  2
0
 70
     0
 62
     7
  6
CONTINUOUS
  0
LAYER
  2
2
 70
     0
 62
     7
  6
CONTINUOUS
  0
LAYER
  2
3
 70
     0
 62
     7
  6
CONTINUOUS
  0
LAYER
  2
4
 70
     0
 62
     7
  6
CONTINUOUS
  0
LAYER
  2
5
 70
     0
 62
     7
  6
CONTINUOUS
  0
LAYER
  2
6
 70
     0
 62
     7
  6
CONTINUOUS
  0
LAYER
  2
7
 70
     0
 62
     7
  6
CONTINUOUS
  0
LAYER
  2
8
 70
     0
 62
     7
  6
CONTINUOUS
  0
LAYER
  2
9
 70
     0
 62
     7
  6
CONTINUOUS
  0
LAYER
  2
10
 70
     0
 62
     7
  6
CONTINUOUS
  0
LAYER
  2
11
 70
     0
 62
     7
  6
CONTINUOUS
  0
LAYER
  2
12
 70
     0
 62
     7
  6
CONTINUOUS
  0
LAYER
  2
13
 70
     0
 62
     7
  6
CONTINUOUS
  0
LAYER
  2
14
 70
     0
 62
     7
  6
CONTINUOUS
  0
LAYER
  2
15
 70
     0
 62
     7
  6
CONTINUOUS
  0
LAYER
  2
16
 70
     0
 62
     7
  6
CONTINUOUS
  0
LAYER
  2
17
 70
     0
 62
     7
  6
CONTINUOUS
  0
LAYER
  2
18
 70
     0
 62
     7
  6
CONTINUOUS
  0
LAYER
  2
19
 70
     0
 62
     7
  6
CONTINUOUS
  0
LAYER
  2
20
 70
     0
 62
     7
  6
CONTINUOUS
  0
LAYER
  2
21
 70
     0
 62
     7
  6
CONTINUOUS
  0
LAYER
  2
22
 70
     0
 62
     7
  6
CONTINUOUS
  0
LAYER
  2
23
 70
     0
 62
     7
  6
CONTINUOUS
  0
LAYER
  2
24
 70
     0
 62
     7
  6
CONTINUOUS
  0
LAYER
  2
25
 70
     0
 62
     7
  6
CONTINUOUS
  0
LAYER
  2
26
 70
     0
 62
     7
  6
CONTINUOUS
  0
LAYER
  2
27
 70
     0
 62
     7
  6
CONTINUOUS
  0
LAYER
  2
28
 70
     0
 62
     7
  6
CONTINUOUS
  0
LAYER
  2
29
 70
     0
 62
     7
  6
CONTINUOUS
  0
LAYER
  2
30
 70
     0
 62
     7
  6
CONTINUOUS
  0
LAYER
  2
31
 70
     0
 62
     7
  6
CONTINUOUS
  0
LAYER
  2
32
 70
     0
 62
     7
  6
CONTINUOUS
  0
LAYER
  2
33
 70
     0
 62
     7
  6
CONTINUOUS
  0
LAYER
  2
34
 70
     0
 62
     7
  6
CONTINUOUS
  0
LAYER
  2
35
 70
     0
 62
     7
  6
CONTINUOUS
  0
LAYER
  2
36
 70
     0
 62
     7
  6
CONTINUOUS
  0
LAYER
  2
37
 70
     0
 62
     7
  6
CONTINUOUS
  0
LAYER
  2
38
 70
     0
 62
     7
  6
CONTINUOUS
  0
LAYER
  2
39
 70
     0
 62
     7
  6
CONTINUOUS
  0
LAYER
  2
40
 70
     0
 62
     7
  6
CONTINUOUS
  0
LAYER
  2
41
 70
     0
 62
     7
  6
CONTINUOUS
  0
LAYER
  2
42
 70
     0
 62
     7
  6
CONTINUOUS
  0
LAYER
  2
43
 70
     0
 62
     7
  6
CONTINUOUS
  0
LAYER
  2
44
 70
     0
 62
     7
  6
CONTINUOUS
  0
LAYER
  2
45
 70
     0
 62
     7
  6
CONTINUOUS
  0
LAYER
  2
46
 70
     0
 62
     7
  6
CONTINUOUS
  0
LAYER
  2
47
 70
     0
 62
     7
  6
CONTINUOUS
  0
LAYER
  2
48
 70
     0
 62
     7
  6
CONTINUOUS
  0
LAYER
  2
49
 70
     0
 62
     7
  6
CONTINUOUS
  0
LAYER
  2
50
 70
     0
 62
     7
  6
CONTINUOUS
  0
LAYER
  2
51
 70
     0
 62
     7
  6
CONTINUOUS
  0
LAYER
  2
52
 70
     0
 62
     7
  6
CONTINUOUS
  0
LAYER
  2
53
 70
     0
 62
     7
  6
CONTINUOUS
  0
LAYER
  2
54
 70
     0
 62
     7
  6
CONTINUOUS
  0
LAYER
  2
55
 70
     0
 62
     7
  6
CONTINUOUS
  0
LAYER
  2
56
 70
     0
 62
     7
  6
CONTINUOUS
  0
LAYER
  2
57
 70
     0
 62
     7
  6
CONTINUOUS
  0
LAYER
  2
58
 70
     0
 62
     7
  6
CONTINUOUS
  0
LAYER
  2
59
 70
     0
 62
     7
  6
CONTINUOUS
  0
LAYER
  2
60
 70
     0
 62
     7
  6
CONTINUOUS
  0
LAYER
  2
61
 70
     0
 62
     7
  6
CONTINUOUS
  0
LAYER
  2
62
 70
     0
 62
     7
  6
CONTINUOUS
  0
LAYER
  2
63
 70
     0
 62
     7
  6
CONTINUOUS
  0
LAYER
  2
64
 70
     0
 62
     7
  6
CONTINUOUS
  0
LAYER
  2
65
 70
     0
 62
     7
  6
CONTINUOUS
  0
LAYER
  2
66
 70
     0
 62
     7
  6
CONTINUOUS
  0
LAYER
  2
67
 70
     0
 62
     7
  6
CONTINUOUS
  0
LAYER
  2
68
 70
     0
 62
     7
  6
CONTINUOUS
  0
LAYER
  2
69
 70
     0
 62
     7
  6
CONTINUOUS
  0
LAYER
  2
70
 70
     0
 62
     7
  6
CONTINUOUS
  0
LAYER
  2
71
 70
     0
 62
     7
  6
CONTINUOUS
  0
LAYER
  2
72
 70
     0
 62
     7
  6
CONTINUOUS
  0
LAYER
  2
73
 70
     0
 62
     7
  6
CONTINUOUS
  0
LAYER
  2
74
 70
     0
 62
     7
  6
CONTINUOUS
  0
LAYER
  2
75
 70
     0
 62
     7
  6
CONTINUOUS
  0
LAYER
  2
76
 70
     0
 62
     7
  6
CONTINUOUS
  0
LAYER
  2
77
 70
     0
 62
     7
  6
CONTINUOUS
  0
LAYER
  2
78
 70
     0
 62
     7
  6
CONTINUOUS
  0
LAYER
  2
79
 70
     0
 62
     7
  6
CONTINUOUS
  0
LAYER
  2
80
 70
     0
 62
     7
  6
CONTINUOUS
  0
LAYER
  2
81
 70
     0
 62
     7
  6
CONTINUOUS
  0
LAYER
  2
82
 70
     0
 62
     7
  6
CONTINUOUS
  0
LAYER
  2
83
 70
     0
 62
     7
  6
CONTINUOUS
  0
LAYER
  2
84
 70
     0
 62
     7
  6
CONTINUOUS
  0
LAYER
  2
85
 70
     0
 62
     7
  6
CONTINUOUS
  0
LAYER
  2
86
 70
     0
 62
     7
  6
CONTINUOUS
  0
LAYER
  2
87
 70
     0
 62
     7
  6
CONTINUOUS
  0
LAYER
  2
88
 70
     0
 62
     7
  6
CONTINUOUS
  0
LAYER
  2
89
 70
     0
 62
     7
  6
CONTINUOUS
  0
LAYER
  2
90
 70
     0
 62
     7
  6
CONTINUOUS
  0
LAYER
  2
91
 70
     0
 62
     7
  6
CONTINUOUS
  0
LAYER
  2
92
 70
     0
 62
     7
  6
CONTINUOUS
  0
LAYER
  2
93
 70
     0
 62
     7
  6
CONTINUOUS
  0
LAYER
  2
94
 70
     0
 62
     7
  6
CONTINUOUS
  0
LAYER
  2
95
 70
     0
 62
     7
  6
CONTINUOUS
  0
LAYER
  2
96
 70
     0
 62
     7
  6
CONTINUOUS
  0
LAYER
  2
97
 70
     0
 62
     7
  6
CONTINUOUS
  0
LAYER
  2
98
 70
     0
 62
     7
  6
CONTINUOUS
  0
LAYER
  2
99
 70
     0
 62
     7
  6
CONTINUOUS
  0
LAYER
  2
100
 70
     0
 62
     7
  6
CONTINUOUS
  0
LAYER
  2
101
 70
     0
 62
     7
  6
CONTINUOUS
  0
LAYER
  2
102
 70
     0
 62
     7
  6
CONTINUOUS
  0
LAYER
  2
103
 70
     0
 62
     7
  6
CONTINUOUS
  0
LAYER
  2
104
 70
     0
 62
     7
  6
CONTINUOUS
  0
LAYER
  2
105
 70
     0
 62
     7
  6
CONTINUOUS
  0
LAYER
  2
106
 70
     0
 62
     7
  6
CONTINUOUS
  0
LAYER
  2
107
 70
     0
 62
     7
  6
CONTINUOUS
  0
LAYER
  2
108
 70
     0
 62
     7
  6
CONTINUOUS
  0
LAYER
  2
109
 70
     0
 62
     7
  6
CONTINUOUS
  0
LAYER
  2
110
 70
     0
 62
     7
  6
CONTINUOUS
  0
LAYER
  2
111
 70
     0
 62
     7
  6
CONTINUOUS
  0
LAYER
  2
112
 70
     0
 62
     7
  6
CONTINUOUS
  0
LAYER
  2
113
 70
     0
 62
     7
  6
CONTINUOUS
  0
LAYER
  2
114
 70
     0
 62
     7
  6
CONTINUOUS
  0
LAYER
  2
115
 70
     0
 62
     7
  6
CONTINUOUS
  0
LAYER
  2
116
 70
     0
 62
     7
  6
CONTINUOUS
  0
LAYER
  2
117
 70
     0
 62
     7
  6
CONTINUOUS
  0
LAYER
  2
118
 70
     0
 62
     7
  6
CONTINUOUS
  0
LAYER
  2
119
 70
     0
 62
     7
  6
CONTINUOUS
  0
LAYER
  2
120
 70
     0
 62
     7
  6
CONTINUOUS
  0
LAYER
  2
121
 70
     0
 62
     7
  6
CONTINUOUS
  0
LAYER
  2
122
 70
     0
 62
     7
  6
CONTINUOUS
  0
LAYER
  2
123
 70
     0
 62
     7
  6
CONTINUOUS
  0
LAYER
  2
124
 70
     0
 62
     7
  6
CONTINUOUS
  0
LAYER
  2
125
 70
     0
 62
     7
  6
CONTINUOUS
  0
LAYER
  2
126
 70
     0
 62
     7
  6
CONTINUOUS
  0
LAYER
  2
127
 70
     0
 62
     7
  6
CONTINUOUS
  0
LAYER
  2
128
 70
     0
 62
     7
  6
CONTINUOUS
  0
ENDTAB
  0
TABLE
  2
STYLE
 70
     6
  0
STYLE
  2
STANDARD
 70
     0
 40
0.0
 41
1.0
 50
0.0
 71
     0
 42
0.2
  3
txt.shx
  4
extfont.shx
  0
STYLE
  2
KANJI0
 70
     0
 40
3.0
 41
0.9
 50
0.0
 71
     0
 42
3.0
  3
txt.shx
  4
extfont.shx
  0
STYLE
  2
KANJI1
 70
     0
 40
4.0
 41
0.9
 50
0.0
 71
     0
 42
4.0
  3
txt.shx
  4
extfont.shx
  0
STYLE
  2
KANJI2
 70
     0
 40
3.0
 41
0.6
 50
0.0
 71
     0
 42
3.0
  3
txt.shx
  4
extfont.shx
  0
STYLE
  2
KANJI3
 70
     0
 40
1.8
 41
0.6
 50
0.0
 71
     0
 42
1.8
  3
txt.shx
  4
extfont.shx
  0
STYLE
  2
KANJI4
 70
     0
 40
6.0
 41
0.9
 50
0.0
 71
     0
 42
6.0
  3
txt.shx
  4
extfont.shx
  0
ENDTAB
  0
TABLE
  2
VIEW
 70
     0
  0
ENDTAB
  0
ENDSEC
  0
SECTION
  2
BLOCKS
  0
ENDSEC
  0
SECTION
  2
ENTITIES
  0
CIRCLE
  8
0
  6
CONTINUOUS
 62
     1
 10
69.0
 20
140.0
 30
0.0
 40
2.25
  0
CIRCLE
  8
0
  6
CONTINUOUS
 62
     1
 10
171.0
 20
140.0
 30
0.0
 40
2.25
  0
CIRCLE
  8
0
  6
CONTINUOUS
 62
     1
 10
87.0
 20
140.0
 30
0.0
 40
3.5
  0
LINE
  8
0
  6
CONTINUOUS
 62
     1
 10
86.5
 20
143.464101615
 30
0.0
 11
86.5
 21
141.0
 31
0.0
  0
ARC
  8
0
  6
CONTINUOUS
 62
     1
 10
86.0
 20
141.0
 30
0.0
 40
0.5
 50
270.0
 51
0.0
  0
LINE
  8
0
  6
CONTINUOUS
 62
     1
 10
86.0
 20
140.5
 30
0.0
 11
84.95
 21
140.5
 31
0.0
  0
LINE
  8
0
  6
CONTINUOUS
 62
     1
 10
84.95
 20
140.5
 30
0.0
 11
84.95
 21
139.5
 31
0.0
  0
LINE
  8
0
  6
CONTINUOUS
 62
     1
 10
84.95
 20
139.5
 30
0.0
 11
86.0
 21
139.5
 31
0.0
  0
ARC
  8
0
  6
CONTINUOUS
 62
     1
 10
86.0
 20
139.0
 30
0.0
 40
0.5
 50
0.0
 51
90.0
  0
LINE
  8
0
  6
CONTINUOUS
 62
     1
 10
86.5
 20
139.0
 30
0.0
 11
86.5
 21
136.535898385
 31
0.0
  0
LINE
  8
0
  6
CONTINUOUS
 62
     1
 10
87.5
 20
143.464101615
 30
0.0
 11
87.5
 21
141.0
 31
0.0
  0
ARC
  8
0
  6
CONTINUOUS
 62
     1
 10
88.0
 20
141.0
 30
0.0
 40
0.5
 50
180.0
 51
270.0
  0
LINE
  8
0
  6
CONTINUOUS
 62
     1
 10
88.0
 20
140.5
 30
0.0
 11
89.05
 21
140.5
 31
0.0
  0
LINE
  8
0
  6
CONTINUOUS
 62
     1
 10
89.05
 20
140.5
 30
0.0
 11
89.05
 21
139.5
 31
0.0
  0
LINE
  8
0
  6
CONTINUOUS
 62
     1
 10
89.05
 20
139.5
 30
0.0
 11
88.0
 21
139.5
 31
0.0
  0
ARC
  8
0
  6
CONTINUOUS
 62
     1
 10
88.0
 20
139.0
 30
0.0
 40
0.5
 50
90.0
 51
180.0
  0
LINE
  8
0
  6
CONTINUOUS
 62
     1
 10
87.5
 20
139.0
 30
0.0
 11
87.5
 21
136.535898385
 31
0.0
  0
CIRCLE
  8
0
  6
CONTINUOUS
 62
     1
 10
153.0
 20
140.0
 30
0.0
 40
3.5
  0
LINE
  8
0
  6
CONTINUOUS
 62
     1
 10
153.5
 20
143.464101615
 30
0.0
 11
153.5
 21
141.0
 31
0.0
  0
ARC
  8
0
  6
CONTINUOUS
 62
     1
 10
154.0
 20
141.0
 30
0.0
 40
0.5
 50
180.0
 51
270.0
  0
LINE
  8
0
  6
CONTINUOUS
 62
     1
 10
154.0
 20
140.5
 30
0.0
 11
155.05
 21
140.5
 31
0.0
  0
LINE
  8
0
  6
CONTINUOUS
 62
     1
 10
155.05
 20
140.5
 30
0.0
 11
155.05
 21
139.5
 31
0.0
  0
LINE
  8
0
  6
CONTINUOUS
 62
     1
 10
155.05
 20
139.5
 30
0.0
 11
154.0
 21
139.5
 31
0.0
  0
ARC
  8
0
  6
CONTINUOUS
 62
     1
 10
154.0
 20
139.0
 30
0.0
 40
0.5
 50
90.0
 51
180.0
  0
LINE
  8
0
  6
CONTINUOUS
 62
     1
 10
153.5
 20
139.0
 30
0.0
 11
153.5
 21
136.535898385
 31
0.0
  0
LINE
  8
0
  6
CONTINUOUS
 62
     1
 10
152.5
 20
143.464101615
 30
0.0
 11
152.5
 21
141.0
 31
0.0
  0
ARC
  8
0
  6
CONTINUOUS
 62
     1
 10
152.0
 20
141.0
 30
0.0
 40
0.5
 50
270.0
 51
0.0
  0
LINE
  8
0
  6
CONTINUOUS
 62
     1
 10
152.0
 20
140.5
 30
0.0
 11
150.95
 21
140.5
 31
0.0
  0
LINE
  8
0
  6
CONTINUOUS
 62
     1
 10
150.95
 20
140.5
 30
0.0
 11
150.95
 21
139.5
 31
0.0
  0
LINE
  8
0
  6
CONTINUOUS
 62
     1
 10
150.95
 20
139.5
 30
0.0
 11
152.0
 21
139.5
 31
0.0
  0
ARC
  8
0
  6
CONTINUOUS
 62
     1
 10
152.0
 20
139.0
 30
0.0
 40
0.5
 50
0.0
 51
90.0
  0
LINE
  8
0
  6
CONTINUOUS
 62
     1
 10
152.5
 20
139.0
 30
0.0
 11
152.5
 21
136.535898385
 31
0.0
  0
ARC
  8
0
  6
CONTINUOUS
 62
     1
 10
81.0
 20
126.0
 30
0.0
 40
6.0
 50
180.0
 51
270.0
  0
LINE
  8
0
  6
CONTINUOUS
 62
     1
 10
81.0
 20
120.0
 30
0.0
 11
159.0
 21
120.0
 31
0.0
  0
ARC
  8
0
  6
CONTINUOUS
 62
     1
 10
159.0
 20
126.0
 30
0.0
 40
6.0
 50
270.0
 51
0.0
  0
LINE
  8
0
  6
CONTINUOUS
 62
     1
 10
165.0
 20
126.0
 30
0.0
 11
165.0
 21
154.0
 31
0.0
  0
ARC
  8
0
  6
CONTINUOUS
 62
     1
 10
159.0
 20
154.0
 30
0.0
 40
6.0
 50
0.0
 51
90.0
  0
LINE
  8
0
  6
CONTINUOUS
 62
     1
 10
159.0
 20
160.0
 30
0.0
 11
81.0
 21
160.0
 31
0.0
  0
ARC
  8
0
  6
CONTINUOUS
 62
     1
 10
81.0
 20
154.0
 30
0.0
 40
6.0
 50
90.0
 51
180.0
  0
LINE
  8
0
  6
CONTINUOUS
 62
     1
 10
75.0
 20
154.0
 30
0.0
 11
75.0
 21
126.0
 31
0.0
  0
LINE
  8
0
  6
CONTINUOUS
 62
     1
 10
64.444460386
 20
143.904748241
 30
0.0
 11
76.444460386
 21
157.904748241
 31
0.0
  0
LINE
  8
0
  6
CONTINUOUS
 62
     1
 10
64.444460386
 20
136.095251759
 30
0.0
 11
76.444460386
 21
122.095251759
 31
0.0
  0
ARC
  8
0
  6
CONTINUOUS
 62
     1
 10
69.0
 20
140.0
 30
0.0
 40
6.0
 50
139.398705355
 51
220.601294645
  0
LINE
  8
0
  6
CONTINUOUS
 62
     1
 10
175.555539614
 20
143.904748241
 30
0.0
 11
163.555539614
 21
157.904748241
 31
0.0
  0
ARC
  8
0
  6
CONTINUOUS
 62
     1
 10
171.0
 20
140.0
 30
0.0
 40
6.0
 50
319.398705355
 51
40.601294645
  0
LINE
  8
0
  6
CONTINUOUS
 62
     1
 10
175.555539614
 20
136.095251759
 30
0.0
 11
163.555539614
 21
122.095251759
 31
0.0
  0
CIRCLE
  8
0
  6
CONTINUOUS
 62
     1
 10
109.0
 20
140.0
 30
0.0
 40
3.5
  0
LINE
  8
0
  6
CONTINUOUS
 62
     1
 10
108.5
 20
143.464101615
 30
0.0
 11
108.5
 21
141.0
 31
0.0
  0
ARC
  8
0
  6
CONTINUOUS
 62
     1
 10
108.0
 20
141.0
 30
0.0
 40
0.5
 50
270.0
 51
0.0
  0
LINE
  8
0
  6
CONTINUOUS
 62
     1
 10
108.0
 20
140.5
 30
0.0
 11
106.95
 21
140.5
 31
0.0
  0
LINE
  8
0
  6
CONTINUOUS
 62
     1
 10
106.95
 20
140.5
 30
0.0
 11
106.95
 21
139.5
 31
0.0
  0
LINE
  8
0
  6
CONTINUOUS
 62
     1
 10
106.95
 20
139.5
 30
0.0
 11
108.0
 21
139.5
 31
0.0
  0
ARC
  8
0
  6
CONTINUOUS
 62
     1
 10
108.0
 20
139.0
 30
0.0
 40
0.5
 50
0.0
 51
90.0
  0
LINE
  8
0
  6
CONTINUOUS
 62
     1
 10
108.5
 20
139.0
 30
0.0
 11
108.5
 21
136.535898385
 31
0.0
  0
LINE
  8
0
  6
CONTINUOUS
 62
     1
 10
109.5
 20
143.464101615
 30
0.0
 11
109.5
 21
141.0
 31
0.0
  0
ARC
  8
0
  6
CONTINUOUS
 62
     1
 10
110.0
 20
141.0
 30
0.0
 40
0.5
 50
180.0
 51
270.0
  0
LINE
  8
0
  6
CONTINUOUS
 62
     1
 10
110.0
 20
140.5
 30
0.0
 11
111.05
 21
140.5
 31
0.0
  0
LINE
  8
0
  6
CONTINUOUS
 62
     1
 10
111.05
 20
140.5
 30
0.0
 11
111.05
 21
139.5
 31
0.0
  0
LINE
  8
0
  6
CONTINUOUS
 62
     1
 10
111.05
 20
139.5
 30
0.0
 11
110.0
 21
139.5
 31
0.0
  0
ARC
  8
0
  6
CONTINUOUS
 62
     1
 10
110.0
 20
139.0
 30
0.0
 40
0.5
 50
90.0
 51
180.0
  0
LINE
  8
0
  6
CONTINUOUS
 62
     1
 10
109.5
 20
139.0
 30
0.0
 11
109.5
 21
136.535898385
 31
0.0
  0
CIRCLE
  8
0
  6
CONTINUOUS
 62
     1
 10
131.0
 20
140.0
 30
0.0
 40
3.5
  0
LINE
  8
0
  6
CONTINUOUS
 62
     1
 10
130.5
 20
143.464101615
 30
0.0
 11
130.5
 21
141.0
 31
0.0
  0
ARC
  8
0
  6
CONTINUOUS
 62
     1
 10
130.0
 20
141.0
 30
0.0
 40
0.5
 50
270.0
 51
0.0
  0
LINE
  8
0
  6
CONTINUOUS
 62
     1
 10
130.0
 20
140.5
 30
0.0
 11
128.95
 21
140.5
 31
0.0
  0
LINE
  8
0
  6
CONTINUOUS
 62
     1
 10
128.95
 20
140.5
 30
0.0
 11
128.95
 21
139.5
 31
0.0
  0
LINE
  8
0
  6
CONTINUOUS
 62
     1
 10
128.95
 20
139.5
 30
0.0
 11
130.0
 21
139.5
 31
0.0
  0
ARC
  8
0
  6
CONTINUOUS
 62
     1
 10
130.0
 20
139.0
 30
0.0
 40
0.5
 50
0.0
 51
90.0
  0
LINE
  8
0
  6
CONTINUOUS
 62
     1
 10
130.5
 20
139.0
 30
0.0
 11
130.5
 21
136.535898385
 31
0.0
  0
LINE
  8
0
  6
CONTINUOUS
 62
     1
 10
131.5
 20
143.464101615
 30
0.0
 11
131.5
 21
141.0
 31
0.0
  0
ARC
  8
0
  6
CONTINUOUS
 62
     1
 10
132.0
 20
141.0
 30
0.0
 40
0.5
 50
180.0
 51
270.0
  0
LINE
  8
0
  6
CONTINUOUS
 62
     1
 10
132.0
 20
140.5
 30
0.0
 11
133.05
 21
140.5
 31
0.0
  0
LINE
  8
0
  6
CONTINUOUS
 62
     1
 10
133.05
 20
140.5
 30
0.0
 11
133.05
 21
139.5
 31
0.0
  0
LINE
  8
0
  6
CONTINUOUS
 62
     1
 10
133.05
 20
139.5
 30
0.0
 11
132.0
 21
139.5
 31
0.0
  0
ARC
  8
0
  6
CONTINUOUS
 62
     1
 10
132.0
 20
139.0
 30
0.0
 40
0.5
 50
90.0
 51
180.0
  0
LINE
  8
0
  6
CONTINUOUS
 62
     1
 10
131.5
 20
139.0
 30
0.0
 11
131.5
 21
136.535898385
 31
0.0
  0
TEXT
  8
0
  6
CONTINUOUS
 62
     1
 10
136.0
 20
131.0
 30
0.3
 40
3.0
  1
ＬＩＮＥ
 50
0.0
 41
0.9
 51
0.0
  7
KANJI0
  0
TEXT
  8
0
  6
CONTINUOUS
 62
     1
 10
91.0
 20
131.0
 30
0.3
 40
3.0
  1
ＭＥＴＥＲ
 50
0.0
 41
0.9
 51
0.0
  7
KANJI0
  0
LINE
  8
0
  6
CONTINUOUS
 62
     1
 10
109.0
 20
145.5
 30
0.0
 11
109.0
 21
147.5
 31
0.0
  0
LINE
  8
0
  6
CONTINUOUS
 62
     1
 10
108.0
 20
146.5
 30
0.0
 11
110.0
 21
146.5
 31
0.0
  0
LINE
  8
0
  6
CONTINUOUS
 62
     1
 10
88.0
 20
146.5
 30
0.0
 11
86.0
 21
146.5
 31
0.0
  0
CIRCLE
  8
0
  6
CONTINUOUS
 62
     1
 10
87.0
 20
140.0
 30
0.0
 40
3.5
  0
LINE
  8
0
  6
CONTINUOUS
 62
     1
 10
86.5
 20
143.464101615
 30
0.0
 11
86.5
 21
141.0
 31
0.0
  0
ARC
  8
0
  6
CONTINUOUS
 62
     1
 10
86.0
 20
141.0
 30
0.0
 40
0.5
 50
270.0
 51
0.0
  0
LINE
  8
0
  6
CONTINUOUS
 62
     1
 10
86.0
 20
140.5
 30
0.0
 11
84.95
 21
140.5
 31
0.0
  0
LINE
  8
0
  6
CONTINUOUS
 62
     1
 10
84.95
 20
140.5
 30
0.0
 11
84.95
 21
139.5
 31
0.0
  0
LINE
  8
0
  6
CONTINUOUS
 62
     1
 10
84.95
 20
139.5
 30
0.0
 11
86.0
 21
139.5
 31
0.0
  0
ARC
  8
0
  6
CONTINUOUS
 62
     1
 10
86.0
 20
139.0
 30
0.0
 40
0.5
 50
0.0
 51
90.0
  0
LINE
  8
0
  6
CONTINUOUS
 62
     1
 10
86.5
 20
139.0
 30
0.0
 11
86.5
 21
136.535898385
 31
0.0
  0
LINE
  8
0
  6
CONTINUOUS
 62
     1
 10
87.5
 20
143.464101615
 30
0.0
 11
87.5
 21
141.0
 31
0.0
  0
ARC
  8
0
  6
CONTINUOUS
 62
     1
 10
88.0
 20
141.0
 30
0.0
 40
0.5
 50
180.0
 51
270.0
  0
LINE
  8
0
  6
CONTINUOUS
 62
     1
 10
88.0
 20
140.5
 30
0.0
 11
89.05
 21
140.5
 31
0.0
  0
LINE
  8
0
  6
CONTINUOUS
 62
     1
 10
89.05
 20
140.5
 30
0.0
 11
89.05
 21
139.5
 31
0.0
  0
LINE
  8
0
  6
CONTINUOUS
 62
     1
 10
89.05
 20
139.5
 30
0.0
 11
88.0
 21
139.5
 31
0.0
  0
ARC
  8
0
  6
CONTINUOUS
 62
     1
 10
88.0
 20
139.0
 30
0.0
 40
0.5
 50
90.0
 51
180.0
  0
LINE
  8
0
  6
CONTINUOUS
 62
     1
 10
87.5
 20
139.0
 30
0.0
 11
87.5
 21
136.535898385
 31
0.0
  0
CIRCLE
  8
0
  6
CONTINUOUS
 62
     1
 10
87.0
 20
140.0
 30
0.0
 40
3.5
  0
LINE
  8
0
  6
CONTINUOUS
 62
     1
 10
86.5
 20
143.464101615
 30
0.0
 11
86.5
 21
141.0
 31
0.0
  0
ARC
  8
0
  6
CONTINUOUS
 62
     1
 10
86.0
 20
141.0
 30
0.0
 40
0.5
 50
270.0
 51
0.0
  0
LINE
  8
0
  6
CONTINUOUS
 62
     1
 10
86.0
 20
140.5
 30
0.0
 11
84.95
 21
140.5
 31
0.0
  0
LINE
  8
0
  6
CONTINUOUS
 62
     1
 10
84.95
 20
140.5
 30
0.0
 11
84.95
 21
139.5
 31
0.0
  0
LINE
  8
0
  6
CONTINUOUS
 62
     1
 10
84.95
 20
139.5
 30
0.0
 11
86.0
 21
139.5
 31
0.0
  0
ARC
  8
0
  6
CONTINUOUS
 62
     1
 10
86.0
 20
139.0
 30
0.0
 40
0.5
 50
0.0
 51
90.0
  0
LINE
  8
0
  6
CONTINUOUS
 62
     1
 10
86.5
 20
139.0
 30
0.0
 11
86.5
 21
136.535898385
 31
0.0
  0
LINE
  8
0
  6
CONTINUOUS
 62
     1
 10
87.5
 20
143.464101615
 30
0.0
 11
87.5
 21
141.0
 31
0.0
  0
ARC
  8
0
  6
CONTINUOUS
 62
     1
 10
88.0
 20
141.0
 30
0.0
 40
0.5
 50
180.0
 51
270.0
  0
LINE
  8
0
  6
CONTINUOUS
 62
     1
 10
88.0
 20
140.5
 30
0.0
 11
89.05
 21
140.5
 31
0.0
  0
LINE
  8
0
  6
CONTINUOUS
 62
     1
 10
89.05
 20
140.5
 30
0.0
 11
89.05
 21
139.5
 31
0.0
  0
LINE
  8
0
  6
CONTINUOUS
 62
     1
 10
89.05
 20
139.5
 30
0.0
 11
88.0
 21
139.5
 31
0.0
  0
ARC
  8
0
  6
CONTINUOUS
 62
     1
 10
88.0
 20
139.0
 30
0.0
 40
0.5
 50
90.0
 51
180.0
  0
LINE
  8
0
  6
CONTINUOUS
 62
     1
 10
87.5
 20
139.0
 30
0.0
 11
87.5
 21
136.535898385
 31
0.0
  0
CIRCLE
  8
0
  6
CONTINUOUS
 62
     1
 10
109.0
 20
140.0
 30
0.0
 40
3.5
  0
LINE
  8
0
  6
CONTINUOUS
 62
     1
 10
108.5
 20
143.464101615
 30
0.0
 11
108.5
 21
141.0
 31
0.0
  0
ARC
  8
0
  6
CONTINUOUS
 62
     1
 10
108.0
 20
141.0
 30
0.0
 40
0.5
 50
270.0
 51
0.0
  0
LINE
  8
0
  6
CONTINUOUS
 62
     1
 10
108.0
 20
140.5
 30
0.0
 11
106.95
 21
140.5
 31
0.0
  0
LINE
  8
0
  6
CONTINUOUS
 62
     1
 10
106.95
 20
140.5
 30
0.0
 11
106.95
 21
139.5
 31
0.0
  0
LINE
  8
0
  6
CONTINUOUS
 62
     1
 10
106.95
 20
139.5
 30
0.0
 11
108.0
 21
139.5
 31
0.0
  0
ARC
  8
0
  6
CONTINUOUS
 62
     1
 10
108.0
 20
139.0
 30
0.0
 40
0.5
 50
0.0
 51
90.0
  0
LINE
  8
0
  6
CONTINUOUS
 62
     1
 10
108.5
 20
139.0
 30
0.0
 11
108.5
 21
136.535898385
 31
0.0
  0
LINE
  8
0
  6
CONTINUOUS
 62
     1
 10
109.5
 20
143.464101615
 30
0.0
 11
109.5
 21
141.0
 31
0.0
  0
ARC
  8
0
  6
CONTINUOUS
 62
     1
 10
110.0
 20
141.0
 30
0.0
 40
0.5
 50
180.0
 51
270.0
  0
LINE
  8
0
  6
CONTINUOUS
 62
     1
 10
110.0
 20
140.5
 30
0.0
 11
111.05
 21
140.5
 31
0.0
  0
LINE
  8
0
  6
CONTINUOUS
 62
     1
 10
111.05
 20
140.5
 30
0.0
 11
111.05
 21
139.5
 31
0.0
  0
LINE
  8
0
  6
CONTINUOUS
 62
     1
 10
111.05
 20
139.5
 30
0.0
 11
110.0
 21
139.5
 31
0.0
  0
ARC
  8
0
  6
CONTINUOUS
 62
     1
 10
110.0
 20
139.0
 30
0.0
 40
0.5
 50
90.0
 51
180.0
  0
LINE
  8
0
  6
CONTINUOUS
 62
     1
 10
109.5
 20
139.0
 30
0.0
 11
109.5
 21
136.535898385
 31
0.0
  0
CIRCLE
  8
0
  6
CONTINUOUS
 62
     1
 10
109.0
 20
140.0
 30
0.0
 40
3.5
  0
LINE
  8
0
  6
CONTINUOUS
 62
     1
 10
108.5
 20
143.464101615
 30
0.0
 11
108.5
 21
141.0
 31
0.0
  0
ARC
  8
0
  6
CONTINUOUS
 62
     1
 10
108.0
 20
141.0
 30
0.0
 40
0.5
 50
270.0
 51
0.0
  0
LINE
  8
0
  6
CONTINUOUS
 62
     1
 10
108.0
 20
140.5
 30
0.0
 11
106.95
 21
140.5
 31
0.0
  0
LINE
  8
0
  6
CONTINUOUS
 62
     1
 10
106.95
 20
140.5
 30
0.0
 11
106.95
 21
139.5
 31
0.0
  0
LINE
  8
0
  6
CONTINUOUS
 62
     1
 10
106.95
 20
139.5
 30
0.0
 11
108.0
 21
139.5
 31
0.0
  0
ARC
  8
0
  6
CONTINUOUS
 62
     1
 10
108.0
 20
139.0
 30
0.0
 40
0.5
 50
0.0
 51
90.0
  0
LINE
  8
0
  6
CONTINUOUS
 62
     1
 10
108.5
 20
139.0
 30
0.0
 11
108.5
 21
136.535898385
 31
0.0
  0
LINE
  8
0
  6
CONTINUOUS
 62
     1
 10
109.5
 20
143.464101615
 30
0.0
 11
109.5
 21
141.0
 31
0.0
  0
ARC
  8
0
  6
CONTINUOUS
 62
     1
 10
110.0
 20
141.0
 30
0.0
 40
0.5
 50
180.0
 51
270.0
  0
LINE
  8
0
  6
CONTINUOUS
 62
     1
 10
110.0
 20
140.5
 30
0.0
 11
111.05
 21
140.5
 31
0.0
  0
LINE
  8
0
  6
CONTINUOUS
 62
     1
 10
111.05
 20
140.5
 30
0.0
 11
111.05
 21
139.5
 31
0.0
  0
LINE
  8
0
  6
CONTINUOUS
 62
     1
 10
111.05
 20
139.5
 30
0.0
 11
110.0
 21
139.5
 31
0.0
  0
ARC
  8
0
  6
CONTINUOUS
 62
     1
 10
110.0
 20
139.0
 30
0.0
 40
0.5
 50
90.0
 51
180.0
  0
LINE
  8
0
  6
CONTINUOUS
 62
     1
 10
109.5
 20
139.0
 30
0.0
 11
109.5
 21
136.535898385
 31
0.0
  0
CIRCLE
  8
0
  6
CONTINUOUS
 62
     1
 10
131.0
 20
140.0
 30
0.0
 40
3.5
  0
LINE
  8
0
  6
CONTINUOUS
 62
     1
 10
130.5
 20
143.464101615
 30
0.0
 11
130.5
 21
141.0
 31
0.0
  0
ARC
  8
0
  6
CONTINUOUS
 62
     1
 10
130.0
 20
141.0
 30
0.0
 40
0.5
 50
270.0
 51
0.0
  0
LINE
  8
0
  6
CONTINUOUS
 62
     1
 10
130.0
 20
140.5
 30
0.0
 11
128.95
 21
140.5
 31
0.0
  0
LINE
  8
0
  6
CONTINUOUS
 62
     1
 10
128.95
 20
140.5
 30
0.0
 11
128.95
 21
139.5
 31
0.0
  0
LINE
  8
0
  6
CONTINUOUS
 62
     1
 10
128.95
 20
139.5
 30
0.0
 11
130.0
 21
139.5
 31
0.0
  0
ARC
  8
0
  6
CONTINUOUS
 62
     1
 10
130.0
 20
139.0
 30
0.0
 40
0.5
 50
0.0
 51
90.0
  0
LINE
  8
0
  6
CONTINUOUS
 62
     1
 10
130.5
 20
139.0
 30
0.0
 11
130.5
 21
136.535898385
 31
0.0
  0
LINE
  8
0
  6
CONTINUOUS
 62
     1
 10
131.5
 20
143.464101615
 30
0.0
 11
131.5
 21
141.0
 31
0.0
  0
ARC
  8
0
  6
CONTINUOUS
 62
     1
 10
132.0
 20
141.0
 30
0.0
 40
0.5
 50
180.0
 51
270.0
  0
LINE
  8
0
  6
CONTINUOUS
 62
     1
 10
132.0
 20
140.5
 30
0.0
 11
133.05
 21
140.5
 31
0.0
  0
LINE
  8
0
  6
CONTINUOUS
 62
     1
 10
133.05
 20
140.5
 30
0.0
 11
133.05
 21
139.5
 31
0.0
  0
LINE
  8
0
  6
CONTINUOUS
 62
     1
 10
133.05
 20
139.5
 30
0.0
 11
132.0
 21
139.5
 31
0.0
  0
ARC
  8
0
  6
CONTINUOUS
 62
     1
 10
132.0
 20
139.0
 30
0.0
 40
0.5
 50
90.0
 51
180.0
  0
LINE
  8
0
  6
CONTINUOUS
 62
     1
 10
131.5
 20
139.0
 30
0.0
 11
131.5
 21
136.535898385
 31
0.0
  0
CIRCLE
  8
0
  6
CONTINUOUS
 62
     1
 10
131.0
 20
140.0
 30
0.0
 40
3.5
  0
LINE
  8
0
  6
CONTINUOUS
 62
     1
 10
130.5
 20
143.464101615
 30
0.0
 11
130.5
 21
141.0
 31
0.0
  0
ARC
  8
0
  6
CONTINUOUS
 62
     1
 10
130.0
 20
141.0
 30
0.0
 40
0.5
 50
270.0
 51
0.0
  0
LINE
  8
0
  6
CONTINUOUS
 62
     1
 10
130.0
 20
140.5
 30
0.0
 11
128.95
 21
140.5
 31
0.0
  0
LINE
  8
0
  6
CONTINUOUS
 62
     1
 10
128.95
 20
140.5
 30
0.0
 11
128.95
 21
139.5
 31
0.0
  0
LINE
  8
0
  6
CONTINUOUS
 62
     1
 10
128.95
 20
139.5
 30
0.0
 11
130.0
 21
139.5
 31
0.0
  0
ARC
  8
0
  6
CONTINUOUS
 62
     1
 10
130.0
 20
139.0
 30
0.0
 40
0.5
 50
0.0
 51
90.0
  0
LINE
  8
0
  6
CONTINUOUS
 62
     1
 10
130.5
 20
139.0
 30
0.0
 11
130.5
 21
136.535898385
 31
0.0
  0
LINE
  8
0
  6
CONTINUOUS
 62
     1
 10
131.5
 20
143.464101615
 30
0.0
 11
131.5
 21
141.0
 31
0.0
  0
ARC
  8
0
  6
CONTINUOUS
 62
     1
 10
132.0
 20
141.0
 30
0.0
 40
0.5
 50
180.0
 51
270.0
  0
LINE
  8
0
  6
CONTINUOUS
 62
     1
 10
132.0
 20
140.5
 30
0.0
 11
133.05
 21
140.5
 31
0.0
  0
LINE
  8
0
  6
CONTINUOUS
 62
     1
 10
133.05
 20
140.5
 30
0.0
 11
133.05
 21
139.5
 31
0.0
  0
LINE
  8
0
  6
CONTINUOUS
 62
     1
 10
133.05
 20
139.5
 30
0.0
 11
132.0
 21
139.5
 31
0.0
  0
ARC
  8
0
  6
CONTINUOUS
 62
     1
 10
132.0
 20
139.0
 30
0.0
 40
0.5
 50
90.0
 51
180.0
  0
LINE
  8
0
  6
CONTINUOUS
 62
     1
 10
131.5
 20
139.0
 30
0.0
 11
131.5
 21
136.535898385
 31
0.0
  0
CIRCLE
  8
0
  6
CONTINUOUS
 62
     1
 10
153.0
 20
140.0
 30
0.0
 40
3.5
  0
LINE
  8
0
  6
CONTINUOUS
 62
     1
 10
152.5
 20
143.464101615
 30
0.0
 11
152.5
 21
141.0
 31
0.0
  0
ARC
  8
0
  6
CONTINUOUS
 62
     1
 10
152.0
 20
141.0
 30
0.0
 40
0.5
 50
270.0
 51
0.0
  0
LINE
  8
0
  6
CONTINUOUS
 62
     1
 10
152.0
 20
140.5
 30
0.0
 11
150.95
 21
140.5
 31
0.0
  0
LINE
  8
0
  6
CONTINUOUS
 62
     1
 10
150.95
 20
140.5
 30
0.0
 11
150.95
 21
139.5
 31
0.0
  0
LINE
  8
0
  6
CONTINUOUS
 62
     1
 10
150.95
 20
139.5
 30
0.0
 11
152.0
 21
139.5
 31
0.0
  0
ARC
  8
0
  6
CONTINUOUS
 62
     1
 10
152.0
 20
139.0
 30
0.0
 40
0.5
 50
0.0
 51
90.0
  0
LINE
  8
0
  6
CONTINUOUS
 62
     1
 10
152.5
 20
139.0
 30
0.0
 11
152.5
 21
136.535898385
 31
0.0
  0
LINE
  8
0
  6
CONTINUOUS
 62
     1
 10
153.5
 20
143.464101615
 30
0.0
 11
153.5
 21
141.0
 31
0.0
  0
ARC
  8
0
  6
CONTINUOUS
 62
     1
 10
154.0
 20
141.0
 30
0.0
 40
0.5
 50
180.0
 51
270.0
  0
LINE
  8
0
  6
CONTINUOUS
 62
     1
 10
154.0
 20
140.5
 30
0.0
 11
155.05
 21
140.5
 31
0.0
  0
LINE
  8
0
  6
CONTINUOUS
 62
     1
 10
155.05
 20
140.5
 30
0.0
 11
155.05
 21
139.5
 31
0.0
  0
LINE
  8
0
  6
CONTINUOUS
 62
     1
 10
155.05
 20
139.5
 30
0.0
 11
154.0
 21
139.5
 31
0.0
  0
ARC
  8
0
  6
CONTINUOUS
 62
     1
 10
154.0
 20
139.0
 30
0.0
 40
0.5
 50
90.0
 51
180.0
  0
LINE
  8
0
  6
CONTINUOUS
 62
     1
 10
153.5
 20
139.0
 30
0.0
 11
153.5
 21
136.535898385
 31
0.0
  0
CIRCLE
  8
0
  6
CONTINUOUS
 62
     1
 10
153.0
 20
140.0
 30
0.0
 40
3.5
  0
LINE
  8
0
  6
CONTINUOUS
 62
     1
 10
152.5
 20
143.464101615
 30
0.0
 11
152.5
 21
141.0
 31
0.0
  0
ARC
  8
0
  6
CONTINUOUS
 62
     1
 10
152.0
 20
141.0
 30
0.0
 40
0.5
 50
270.0
 51
0.0
  0
LINE
  8
0
  6
CONTINUOUS
 62
     1
 10
152.0
 20
140.5
 30
0.0
 11
150.95
 21
140.5
 31
0.0
  0
LINE
  8
0
  6
CONTINUOUS
 62
     1
 10
150.95
 20
140.5
 30
0.0
 11
150.95
 21
139.5
 31
0.0
  0
LINE
  8
0
  6
CONTINUOUS
 62
     1
 10
150.95
 20
139.5
 30
0.0
 11
152.0
 21
139.5
 31
0.0
  0
ARC
  8
0
  6
CONTINUOUS
 62
     1
 10
152.0
 20
139.0
 30
0.0
 40
0.5
 50
0.0
 51
90.0
  0
LINE
  8
0
  6
CONTINUOUS
 62
     1
 10
152.5
 20
139.0
 30
0.0
 11
152.5
 21
136.535898385
 31
0.0
  0
LINE
  8
0
  6
CONTINUOUS
 62
     1
 10
153.5
 20
143.464101615
 30
0.0
 11
153.5
 21
141.0
 31
0.0
  0
ARC
  8
0
  6
CONTINUOUS
 62
     1
 10
154.0
 20
141.0
 30
0.0
 40
0.5
 50
180.0
 51
270.0
  0
LINE
  8
0
  6
CONTINUOUS
 62
     1
 10
154.0
 20
140.5
 30
0.0
 11
155.05
 21
140.5
 31
0.0
  0
LINE
  8
0
  6
CONTINUOUS
 62
     1
 10
155.05
 20
140.5
 30
0.0
 11
155.05
 21
139.5
 31
0.0
  0
LINE
  8
0
  6
CONTINUOUS
 62
     1
 10
155.05
 20
139.5
 30
0.0
 11
154.0
 21
139.5
 31
0.0
  0
ARC
  8
0
  6
CONTINUOUS
 62
     1
 10
154.0
 20
139.0
 30
0.0
 40
0.5
 50
90.0
 51
180.0
  0
LINE
  8
0
  6
CONTINUOUS
 62
     1
 10
153.5
 20
139.0
 30
0.0
 11
153.5
 21
136.535898385
 31
0.0
  0
LINE
  8
0
  6
CONTINUOUS
 62
     1
 10
63.0
 20
40.0
 30
0.0
 11
63.0
 21
45.0
 31
0.0
  0
LINE
  8
0
  6
CONTINUOUS
 62
     1
 10
63.0
 20
45.0
 30
0.0
 11
75.0
 21
45.0
 31
0.0
  0
ARC
  8
0
  6
CONTINUOUS
 62
     1
 10
76.5
 20
85.5
 30
0.0
 40
1.5
 50
90.0
 51
180.0
  0
LINE
  8
0
  6
CONTINUOUS
 62
     1
 10
75.0
 20
45.0
 30
0.0
 11
75.0
 21
85.5
 31
0.0
  0
ARC
  8
0
  6
CONTINUOUS
 62
     1
 10
163.5
 20
85.5
 30
0.0
 40
1.5
 50
0.0
 51
90.0
  0
LINE
  8
0
  6
CONTINUOUS
 62
     1
 10
165.0
 20
85.5
 30
0.0
 11
165.0
 21
45.3
 31
0.0
  0
LINE
  8
0
  6
CONTINUOUS
 62
     1
 10
76.5
 20
87.0
 30
0.0
 11
163.5
 21
87.0
 31
0.0
  0
LINE
  8
0
  6
CONTINUOUS
 62
     1
 10
75.0
 20
84.5
 30
0.0
 11
165.0
 21
84.5
 31
0.0
  0
LINE
  8
0
  6
CONTINUOUS
 62
     1
 10
177.0
 20
40.0
 30
0.0
 11
177.0
 21
45.0
 31
0.0
  0
LINE
  8
0
  6
CONTINUOUS
 62
     1
 10
177.0
 20
45.0
 30
0.0
 11
165.0
 21
45.0
 31
0.0
  0
LINE
  8
0
  6
CONTINUOUS
 62
     1
 10
177.0
 20
40.0
 30
0.0
 11
63.0
 21
40.0
 31
0.0
  0
ARC
  8
0
  6
CONTINUOUS
 62
     1
 10
102.0
 20
53.0
 30
0.0
 40
1.0
 50
180.0
 51
270.0
  0
LINE
  8
0
  6
CONTINUOUS
 62
     1
 10
102.0
 20
52.0
 30
0.0
 11
138.0
 21
52.0
 31
0.0
  0
ARC
  8
0
  6
CONTINUOUS
 62
     1
 10
138.0
 20
53.0
 30
0.0
 40
1.0
 50
270.0
 51
0.0
  0
LINE
  8
0
  6
CONTINUOUS
 62
     1
 10
139.0
 20
53.0
 30
0.0
 11
139.0
 21
70.0
 31
0.0
  0
ARC
  8
0
  6
CONTINUOUS
 62
     1
 10
138.0
 20
70.0
 30
0.0
 40
1.0
 50
0.0
 51
90.0
  0
LINE
  8
0
  6
CONTINUOUS
 62
     1
 10
138.0
 20
71.0
 30
0.0
 11
102.0
 21
71.0
 31
0.0
  0
ARC
  8
0
  6
CONTINUOUS
 62
     1
 10
102.0
 20
70.0
 30
0.0
 40
1.0
 50
90.0
 51
180.0
  0
LINE
  8
0
  6
CONTINUOUS
 62
     1
 10
101.0
 20
70.0
 30
0.0
 11
101.0
 21
53.0
 31
0.0
  0
TEXT
  8
0
  6
CONTINUOUS
 62
     1
 10
114.3
 20
59.5
 30
0.4
 40
4.0
  1
銘　板
 50
0.0
 41
0.9
 51
0.0
  7
KANJI1
  0
LINE
  8
0
  6
CONTINUOUS
 62
     1
 10
87.0
 20
92.0
 30
0.0
 11
87.577350269
 21
93.0
 31
0.0
  0
LINE
  8
0
  6
CONTINUOUS
 62
     1
 10
87.0
 20
93.0
 30
0.0
 11
86.422649731
 21
92.0
 31
0.0
  0
ARC
  8
0
  6
CONTINUOUS
 62
     1
 10
84.8
 20
94.3
 30
0.0
 40
1.3
 50
90.0
 51
180.0
  0
LINE
  8
0
  6
CONTINUOUS
 62
     1
 10
84.8
 20
95.6
 30
0.0
 11
86.5
 21
95.6
 31
0.0
  0
LINE
  8
0
  6
CONTINUOUS
 62
     1
 10
86.5
 20
95.6
 30
0.0
 11
86.5
 21
94.2
 31
0.0
  0
LINE
  8
0
  6
CONTINUOUS
 62
     1
 10
86.5
 20
94.2
 30
0.0
 11
87.5
 21
94.2
 31
0.0
  0
LINE
  8
0
  6
CONTINUOUS
 62
     1
 10
87.5
 20
94.2
 30
0.0
 11
87.5
 21
95.6
 31
0.0
  0
LINE
  8
0
  6
CONTINUOUS
 62
     1
 10
87.5
 20
95.6
 30
0.0
 11
89.2
 21
95.6
 31
0.0
  0
ARC
  8
0
  6
CONTINUOUS
 62
     1
 10
89.2
 20
94.3
 30
0.0
 40
1.3
 50
0.0
 51
90.0
  0
LINE
  8
0
  6
CONTINUOUS
 62
     1
 10
83.5
 20
92.0
 30
0.0
 11
83.5
 21
94.3
 31
0.0
  0
LINE
  8
0
  6
CONTINUOUS
 62
     1
 10
90.5
 20
94.3
 30
0.0
 11
90.5
 21
92.0
 31
0.0
  0
LINE
  8
0
  6
CONTINUOUS
 62
     1
 10
83.5
 20
93.0
 30
0.0
 11
90.5
 21
93.0
 31
0.0
  0
LINE
  8
0
  6
CONTINUOUS
 62
     1
 10
83.5
 20
92.0
 30
0.0
 11
90.5
 21
92.0
 31
0.0
  0
LINE
  8
0
  6
CONTINUOUS
 62
     1
 10
153.0
 20
92.0
 30
0.0
 11
152.422649731
 21
93.0
 31
0.0
  0
LINE
  8
0
  6
CONTINUOUS
 62
     1
 10
153.0
 20
93.0
 30
0.0
 11
153.577350269
 21
92.0
 31
0.0
  0
ARC
  8
0
  6
CONTINUOUS
 62
     1
 10
155.2
 20
94.3
 30
0.0
 40
1.3
 50
0.0
 51
90.0
  0
LINE
  8
0
  6
CONTINUOUS
 62
     1
 10
155.2
 20
95.6
 30
0.0
 11
153.5
 21
95.6
 31
0.0
  0
LINE
  8
0
  6
CONTINUOUS
 62
     1
 10
153.5
 20
95.6
 30
0.0
 11
153.5
 21
94.2
 31
0.0
  0
LINE
  8
0
  6
CONTINUOUS
 62
     1
 10
153.5
 20
94.2
 30
0.0
 11
152.5
 21
94.2
 31
0.0
  0
LINE
  8
0
  6
CONTINUOUS
 62
     1
 10
152.5
 20
94.2
 30
0.0
 11
152.5
 21
95.6
 31
0.0
  0
LINE
  8
0
  6
CONTINUOUS
 62
     1
 10
152.5
 20
95.6
 30
0.0
 11
150.8
 21
95.6
 31
0.0
  0
ARC
  8
0
  6
CONTINUOUS
 62
     1
 10
150.8
 20
94.3
 30
0.0
 40
1.3
 50
90.0
 51
180.0
  0
LINE
  8
0
  6
CONTINUOUS
 62
     1
 10
156.5
 20
92.0
 30
0.0
 11
156.5
 21
94.3
 31
0.0
  0
LINE
  8
0
  6
CONTINUOUS
 62
     1
 10
149.5
 20
94.3
 30
0.0
 11
149.5
 21
92.0
 31
0.0
  0
LINE
  8
0
  6
CONTINUOUS
 62
     1
 10
156.5
 20
93.0
 30
0.0
 11
149.5
 21
93.0
 31
0.0
  0
LINE
  8
0
  6
CONTINUOUS
 62
     1
 10
156.5
 20
92.0
 30
0.0
 11
149.5
 21
92.0
 31
0.0
  0
LINE
  8
0
  6
CONTINUOUS
 62
     1
 10
131.0
 20
92.0
 30
0.0
 11
130.422649731
 21
93.0
 31
0.0
  0
LINE
  8
0
  6
CONTINUOUS
 62
     1
 10
131.0
 20
93.0
 30
0.0
 11
131.577350269
 21
92.0
 31
0.0
  0
ARC
  8
0
  6
CONTINUOUS
 62
     1
 10
133.2
 20
94.3
 30
0.0
 40
1.3
 50
0.0
 51
90.0
  0
LINE
  8
0
  6
CONTINUOUS
 62
     1
 10
133.2
 20
95.6
 30
0.0
 11
131.5
 21
95.6
 31
0.0
  0
LINE
  8
0
  6
CONTINUOUS
 62
     1
 10
131.5
 20
95.6
 30
0.0
 11
131.5
 21
94.2
 31
0.0
  0
LINE
  8
0
  6
CONTINUOUS
 62
     1
 10
131.5
 20
94.2
 30
0.0
 11
130.5
 21
94.2
 31
0.0
  0
LINE
  8
0
  6
CONTINUOUS
 62
     1
 10
130.5
 20
94.2
 30
0.0
 11
130.5
 21
95.6
 31
0.0
  0
LINE
  8
0
  6
CONTINUOUS
 62
     1
 10
130.5
 20
95.6
 30
0.0
 11
128.8
 21
95.6
 31
0.0
  0
ARC
  8
0
  6
CONTINUOUS
 62
     1
 10
128.8
 20
94.3
 30
0.0
 40
1.3
 50
90.0
 51
180.0
  0
LINE
  8
0
  6
CONTINUOUS
 62
     1
 10
134.5
 20
92.0
 30
0.0
 11
134.5
 21
94.3
 31
0.0
  0
LINE
  8
0
  6
CONTINUOUS
 62
     1
 10
127.5
 20
94.3
 30
0.0
 11
127.5
 21
92.0
 31
0.0
  0
LINE
  8
0
  6
CONTINUOUS
 62
     1
 10
134.5
 20
93.0
 30
0.0
 11
127.5
 21
93.0
 31
0.0
  0
LINE
  8
0
  6
CONTINUOUS
 62
     1
 10
134.5
 20
92.0
 30
0.0
 11
127.5
 21
92.0
 31
0.0
  0
LINE
  8
0
  6
CONTINUOUS
 62
     1
 10
109.0
 20
92.0
 30
0.0
 11
108.422649731
 21
93.0
 31
0.0
  0
LINE
  8
0
  6
CONTINUOUS
 62
     1
 10
109.0
 20
93.0
 30
0.0
 11
109.577350269
 21
92.0
 31
0.0
  0
ARC
  8
0
  6
CONTINUOUS
 62
     1
 10
111.2
 20
94.3
 30
0.0
 40
1.3
 50
0.0
 51
90.0
  0
LINE
  8
0
  6
CONTINUOUS
 62
     1
 10
111.2
 20
95.6
 30
0.0
 11
109.5
 21
95.6
 31
0.0
  0
LINE
  8
0
  6
CONTINUOUS
 62
     1
 10
109.5
 20
95.6
 30
0.0
 11
109.5
 21
94.2
 31
0.0
  0
LINE
  8
0
  6
CONTINUOUS
 62
     1
 10
109.5
 20
94.2
 30
0.0
 11
108.5
 21
94.2
 31
0.0
  0
LINE
  8
0
  6
CONTINUOUS
 62
     1
 10
108.5
 20
94.2
 30
0.0
 11
108.5
 21
95.6
 31
0.0
  0
LINE
  8
0
  6
CONTINUOUS
 62
     1
 10
108.5
 20
95.6
 30
0.0
 11
106.8
 21
95.6
 31
0.0
  0
ARC
  8
0
  6
CONTINUOUS
 62
     1
 10
106.8
 20
94.3
 30
0.0
 40
1.3
 50
90.0
 51
180.0
  0
LINE
  8
0
  6
CONTINUOUS
 62
     1
 10
112.5
 20
92.0
 30
0.0
 11
112.5
 21
94.3
 31
0.0
  0
LINE
  8
0
  6
CONTINUOUS
 62
     1
 10
105.5
 20
94.3
 30
0.0
 11
105.5
 21
92.0
 31
0.0
  0
LINE
  8
0
  6
CONTINUOUS
 62
     1
 10
112.5
 20
93.0
 30
0.0
 11
105.5
 21
93.0
 31
0.0
  0
LINE
  8
0
  6
CONTINUOUS
 62
     1
 10
112.5
 20
92.0
 30
0.0
 11
105.5
 21
92.0
 31
0.0
  0
LINE
  8
0
  6
CONTINUOUS
 62
     1
 10
84.0
 20
87.0
 30
0.0
 11
84.0
 21
92.0
 31
0.0
  0
LINE
  8
0
  6
CONTINUOUS
 62
     1
 10
90.0
 20
92.0
 30
0.0
 11
90.0
 21
87.0
 31
0.0
  0
LINE
  8
0
  6
CONTINUOUS
 62
     1
 10
112.0
 20
87.0
 30
0.0
 11
112.0
 21
92.0
 31
0.0
  0
LINE
  8
0
  6
CONTINUOUS
 62
     1
 10
106.0
 20
92.0
 30
0.0
 11
106.0
 21
87.0
 31
0.0
  0
LINE
  8
0
  6
CONTINUOUS
 62
     1
 10
134.0
 20
87.0
 30
0.0
 11
134.0
 21
92.0
 31
0.0
  0
LINE
  8
0
  6
CONTINUOUS
 62
     1
 10
128.0
 20
92.0
 30
0.0
 11
128.0
 21
87.0
 31
0.0
  0
LINE
  8
0
  6
CONTINUOUS
 62
     1
 10
156.0
 20
87.0
 30
0.0
 11
156.0
 21
92.0
 31
0.0
  0
LINE
  8
0
  6
CONTINUOUS
 62
     1
 10
150.0
 20
92.0
 30
0.0
 11
150.0
 21
87.0
 31
0.0
  0
LINE
  8
0
  6
CONTINUOUS
 62
     1
 10
87.0
 20
92.0
 30
0.0
 11
87.577350269
 21
93.0
 31
0.0
  0
LINE
  8
0
  6
CONTINUOUS
 62
     1
 10
87.0
 20
93.0
 30
0.0
 11
86.422649731
 21
92.0
 31
0.0
  0
ARC
  8
0
  6
CONTINUOUS
 62
     1
 10
84.8
 20
94.3
 30
0.0
 40
1.3
 50
90.0
 51
180.0
  0
LINE
  8
0
  6
CONTINUOUS
 62
     1
 10
84.8
 20
95.6
 30
0.0
 11
86.5
 21
95.6
 31
0.0
  0
LINE
  8
0
  6
CONTINUOUS
 62
     1
 10
86.5
 20
95.6
 30
0.0
 11
86.5
 21
94.2
 31
0.0
  0
LINE
  8
0
  6
CONTINUOUS
 62
     1
 10
86.5
 20
94.2
 30
0.0
 11
87.5
 21
94.2
 31
0.0
  0
LINE
  8
0
  6
CONTINUOUS
 62
     1
 10
87.5
 20
94.2
 30
0.0
 11
87.5
 21
95.6
 31
0.0
  0
LINE
  8
0
  6
CONTINUOUS
 62
     1
 10
87.5
 20
95.6
 30
0.0
 11
89.2
 21
95.6
 31
0.0
  0
ARC
  8
0
  6
CONTINUOUS
 62
     1
 10
89.2
 20
94.3
 30
0.0
 40
1.3
 50
0.0
 51
90.0
  0
LINE
  8
0
  6
CONTINUOUS
 62
     1
 10
83.5
 20
92.0
 30
0.0
 11
83.5
 21
94.3
 31
0.0
  0
LINE
  8
0
  6
CONTINUOUS
 62
     1
 10
90.5
 20
94.3
 30
0.0
 11
90.5
 21
92.0
 31
0.0
  0
LINE
  8
0
  6
CONTINUOUS
 62
     1
 10
83.5
 20
93.0
 30
0.0
 11
90.5
 21
93.0
 31
0.0
  0
LINE
  8
0
  6
CONTINUOUS
 62
     1
 10
83.5
 20
92.0
 30
0.0
 11
90.5
 21
92.0
 31
0.0
  0
LINE
  8
0
  6
CONTINUOUS
 62
     1
 10
84.0
 20
87.0
 30
0.0
 11
84.0
 21
92.0
 31
0.0
  0
LINE
  8
0
  6
CONTINUOUS
 62
     1
 10
90.0
 20
92.0
 30
0.0
 11
90.0
 21
87.0
 31
0.0
  0
ARC
  8
0
  6
CONTINUOUS
 62
     1
 10
89.2
 20
94.3
 30
0.0
 40
1.3
 50
0.0
 51
90.0
  0
LINE
  8
0
  6
CONTINUOUS
 62
     1
 10
89.2
 20
95.6
 30
0.0
 11
87.5
 21
95.6
 31
0.0
  0
LINE
  8
0
  6
CONTINUOUS
 62
     1
 10
87.5
 20
95.6
 30
0.0
 11
87.5
 21
94.2
 31
0.0
  0
LINE
  8
0
  6
CONTINUOUS
 62
     1
 10
87.5
 20
94.2
 30
0.0
 11
86.5
 21
94.2
 31
0.0
  0
LINE
  8
0
  6
CONTINUOUS
 62
     1
 10
86.5
 20
94.2
 30
0.0
 11
86.5
 21
95.6
 31
0.0
  0
LINE
  8
0
  6
CONTINUOUS
 62
     1
 10
86.5
 20
95.6
 30
0.0
 11
84.8
 21
95.6
 31
0.0
  0
ARC
  8
0
  6
CONTINUOUS
 62
     1
 10
84.8
 20
94.3
 30
0.0
 40
1.3
 50
90.0
 51
180.0
  0
LINE
  8
0
  6
CONTINUOUS
 62
     1
 10
90.5
 20
92.0
 30
0.0
 11
90.5
 21
94.3
 31
0.0
  0
LINE
  8
0
  6
CONTINUOUS
 62
     1
 10
83.5
 20
94.3
 30
0.0
 11
83.5
 21
92.0
 31
0.0
  0
LINE
  8
0
  6
CONTINUOUS
 62
     1
 10
90.5
 20
93.0
 30
0.0
 11
83.5
 21
93.0
 31
0.0
  0
LINE
  8
0
  6
CONTINUOUS
 62
     1
 10
90.5
 20
92.0
 30
0.0
 11
83.5
 21
92.0
 31
0.0
  0
LINE
  8
0
  6
CONTINUOUS
 62
     1
 10
90.0
 20
87.0
 30
0.0
 11
90.0
 21
92.0
 31
0.0
  0
LINE
  8
0
  6
CONTINUOUS
 62
     1
 10
84.0
 20
92.0
 30
0.0
 11
84.0
 21
87.0
 31
0.0
  0
ARC
  8
0
  6
CONTINUOUS
 62
     1
 10
106.8
 20
94.3
 30
0.0
 40
1.3
 50
90.0
 51
180.0
  0
LINE
  8
0
  6
CONTINUOUS
 62
     1
 10
106.8
 20
95.6
 30
0.0
 11
108.5
 21
95.6
 31
0.0
  0
LINE
  8
0
  6
CONTINUOUS
 62
     1
 10
108.5
 20
95.6
 30
0.0
 11
108.5
 21
94.2
 31
0.0
  0
LINE
  8
0
  6
CONTINUOUS
 62
     1
 10
108.5
 20
94.2
 30
0.0
 11
109.5
 21
94.2
 31
0.0
  0
LINE
  8
0
  6
CONTINUOUS
 62
     1
 10
109.5
 20
94.2
 30
0.0
 11
109.5
 21
95.6
 31
0.0
  0
LINE
  8
0
  6
CONTINUOUS
 62
     1
 10
109.5
 20
95.6
 30
0.0
 11
111.2
 21
95.6
 31
0.0
  0
ARC
  8
0
  6
CONTINUOUS
 62
     1
 10
111.2
 20
94.3
 30
0.0
 40
1.3
 50
0.0
 51
90.0
  0
LINE
  8
0
  6
CONTINUOUS
 62
     1
 10
105.5
 20
92.0
 30
0.0
 11
105.5
 21
94.3
 31
0.0
  0
LINE
  8
0
  6
CONTINUOUS
 62
     1
 10
112.5
 20
94.3
 30
0.0
 11
112.5
 21
92.0
 31
0.0
  0
LINE
  8
0
  6
CONTINUOUS
 62
     1
 10
105.5
 20
93.0
 30
0.0
 11
112.5
 21
93.0
 31
0.0
  0
LINE
  8
0
  6
CONTINUOUS
 62
     1
 10
105.5
 20
92.0
 30
0.0
 11
112.5
 21
92.0
 31
0.0
  0
LINE
  8
0
  6
CONTINUOUS
 62
     1
 10
106.0
 20
87.0
 30
0.0
 11
106.0
 21
92.0
 31
0.0
  0
LINE
  8
0
  6
CONTINUOUS
 62
     1
 10
112.0
 20
92.0
 30
0.0
 11
112.0
 21
87.0
 31
0.0
  0
ARC
  8
0
  6
CONTINUOUS
 62
     1
 10
111.2
 20
94.3
 30
0.0
 40
1.3
 50
0.0
 51
90.0
  0
LINE
  8
0
  6
CONTINUOUS
 62
     1
 10
111.2
 20
95.6
 30
0.0
 11
109.5
 21
95.6
 31
0.0
  0
LINE
  8
0
  6
CONTINUOUS
 62
     1
 10
109.5
 20
95.6
 30
0.0
 11
109.5
 21
94.2
 31
0.0
  0
LINE
  8
0
  6
CONTINUOUS
 62
     1
 10
109.5
 20
94.2
 30
0.0
 11
108.5
 21
94.2
 31
0.0
  0
LINE
  8
0
  6
CONTINUOUS
 62
     1
 10
108.5
 20
94.2
 30
0.0
 11
108.5
 21
95.6
 31
0.0
  0
LINE
  8
0
  6
CONTINUOUS
 62
     1
 10
108.5
 20
95.6
 30
0.0
 11
106.8
 21
95.6
 31
0.0
  0
ARC
  8
0
  6
CONTINUOUS
 62
     1
 10
106.8
 20
94.3
 30
0.0
 40
1.3
 50
90.0
 51
180.0
  0
LINE
  8
0
  6
CONTINUOUS
 62
     1
 10
112.5
 20
92.0
 30
0.0
 11
112.5
 21
94.3
 31
0.0
  0
LINE
  8
0
  6
CONTINUOUS
 62
     1
 10
105.5
 20
94.3
 30
0.0
 11
105.5
 21
92.0
 31
0.0
  0
LINE
  8
0
  6
CONTINUOUS
 62
     1
 10
112.5
 20
93.0
 30
0.0
 11
105.5
 21
93.0
 31
0.0
  0
LINE
  8
0
  6
CONTINUOUS
 62
     1
 10
112.5
 20
92.0
 30
0.0
 11
105.5
 21
92.0
 31
0.0
  0
LINE
  8
0
  6
CONTINUOUS
 62
     1
 10
112.0
 20
87.0
 30
0.0
 11
112.0
 21
92.0
 31
0.0
  0
LINE
  8
0
  6
CONTINUOUS
 62
     1
 10
106.0
 20
92.0
 30
0.0
 11
106.0
 21
87.0
 31
0.0
  0
ARC
  8
0
  6
CONTINUOUS
 62
     1
 10
128.8
 20
94.3
 30
0.0
 40
1.3
 50
90.0
 51
180.0
  0
LINE
  8
0
  6
CONTINUOUS
 62
     1
 10
128.8
 20
95.6
 30
0.0
 11
130.5
 21
95.6
 31
0.0
  0
LINE
  8
0
  6
CONTINUOUS
 62
     1
 10
130.5
 20
95.6
 30
0.0
 11
130.5
 21
94.2
 31
0.0
  0
LINE
  8
0
  6
CONTINUOUS
 62
     1
 10
130.5
 20
94.2
 30
0.0
 11
131.5
 21
94.2
 31
0.0
  0
LINE
  8
0
  6
CONTINUOUS
 62
     1
 10
131.5
 20
94.2
 30
0.0
 11
131.5
 21
95.6
 31
0.0
  0
LINE
  8
0
  6
CONTINUOUS
 62
     1
 10
131.5
 20
95.6
 30
0.0
 11
133.2
 21
95.6
 31
0.0
  0
ARC
  8
0
  6
CONTINUOUS
 62
     1
 10
133.2
 20
94.3
 30
0.0
 40
1.3
 50
0.0
 51
90.0
  0
LINE
  8
0
  6
CONTINUOUS
 62
     1
 10
127.5
 20
92.0
 30
0.0
 11
127.5
 21
94.3
 31
0.0
  0
LINE
  8
0
  6
CONTINUOUS
 62
     1
 10
134.5
 20
94.3
 30
0.0
 11
134.5
 21
92.0
 31
0.0
  0
LINE
  8
0
  6
CONTINUOUS
 62
     1
 10
127.5
 20
93.0
 30
0.0
 11
134.5
 21
93.0
 31
0.0
  0
LINE
  8
0
  6
CONTINUOUS
 62
     1
 10
127.5
 20
92.0
 30
0.0
 11
134.5
 21
92.0
 31
0.0
  0
LINE
  8
0
  6
CONTINUOUS
 62
     1
 10
128.0
 20
87.0
 30
0.0
 11
128.0
 21
92.0
 31
0.0
  0
LINE
  8
0
  6
CONTINUOUS
 62
     1
 10
134.0
 20
92.0
 30
0.0
 11
134.0
 21
87.0
 31
0.0
  0
ARC
  8
0
  6
CONTINUOUS
 62
     1
 10
133.2
 20
94.3
 30
0.0
 40
1.3
 50
0.0
 51
90.0
  0
LINE
  8
0
  6
CONTINUOUS
 62
     1
 10
133.2
 20
95.6
 30
0.0
 11
131.5
 21
95.6
 31
0.0
  0
LINE
  8
0
  6
CONTINUOUS
 62
     1
 10
131.5
 20
95.6
 30
0.0
 11
131.5
 21
94.2
 31
0.0
  0
LINE
  8
0
  6
CONTINUOUS
 62
     1
 10
131.5
 20
94.2
 30
0.0
 11
130.5
 21
94.2
 31
0.0
  0
LINE
  8
0
  6
CONTINUOUS
 62
     1
 10
130.5
 20
94.2
 30
0.0
 11
130.5
 21
95.6
 31
0.0
  0
LINE
  8
0
  6
CONTINUOUS
 62
     1
 10
130.5
 20
95.6
 30
0.0
 11
128.8
 21
95.6
 31
0.0
  0
ARC
  8
0
  6
CONTINUOUS
 62
     1
 10
128.8
 20
94.3
 30
0.0
 40
1.3
 50
90.0
 51
180.0
  0
LINE
  8
0
  6
CONTINUOUS
 62
     1
 10
134.5
 20
92.0
 30
0.0
 11
134.5
 21
94.3
 31
0.0
  0
LINE
  8
0
  6
CONTINUOUS
 62
     1
 10
127.5
 20
94.3
 30
0.0
 11
127.5
 21
92.0
 31
0.0
  0
LINE
  8
0
  6
CONTINUOUS
 62
     1
 10
134.5
 20
93.0
 30
0.0
 11
127.5
 21
93.0
 31
0.0
  0
LINE
  8
0
  6
CONTINUOUS
 62
     1
 10
134.5
 20
92.0
 30
0.0
 11
127.5
 21
92.0
 31
0.0
  0
LINE
  8
0
  6
CONTINUOUS
 62
     1
 10
134.0
 20
87.0
 30
0.0
 11
134.0
 21
92.0
 31
0.0
  0
LINE
  8
0
  6
CONTINUOUS
 62
     1
 10
128.0
 20
92.0
 30
0.0
 11
128.0
 21
87.0
 31
0.0
  0
ARC
  8
0
  6
CONTINUOUS
 62
     1
 10
150.8
 20
94.3
 30
0.0
 40
1.3
 50
90.0
 51
180.0
  0
LINE
  8
0
  6
CONTINUOUS
 62
     1
 10
150.8
 20
95.6
 30
0.0
 11
152.5
 21
95.6
 31
0.0
  0
LINE
  8
0
  6
CONTINUOUS
 62
     1
 10
152.5
 20
95.6
 30
0.0
 11
152.5
 21
94.2
 31
0.0
  0
LINE
  8
0
  6
CONTINUOUS
 62
     1
 10
152.5
 20
94.2
 30
0.0
 11
153.5
 21
94.2
 31
0.0
  0
LINE
  8
0
  6
CONTINUOUS
 62
     1
 10
153.5
 20
94.2
 30
0.0
 11
153.5
 21
95.6
 31
0.0
  0
LINE
  8
0
  6
CONTINUOUS
 62
     1
 10
153.5
 20
95.6
 30
0.0
 11
155.2
 21
95.6
 31
0.0
  0
ARC
  8
0
  6
CONTINUOUS
 62
     1
 10
155.2
 20
94.3
 30
0.0
 40
1.3
 50
0.0
 51
90.0
  0
LINE
  8
0
  6
CONTINUOUS
 62
     1
 10
149.5
 20
92.0
 30
0.0
 11
149.5
 21
94.3
 31
0.0
  0
LINE
  8
0
  6
CONTINUOUS
 62
     1
 10
156.5
 20
94.3
 30
0.0
 11
156.5
 21
92.0
 31
0.0
  0
LINE
  8
0
  6
CONTINUOUS
 62
     1
 10
149.5
 20
93.0
 30
0.0
 11
156.5
 21
93.0
 31
0.0
  0
LINE
  8
0
  6
CONTINUOUS
 62
     1
 10
149.5
 20
92.0
 30
0.0
 11
156.5
 21
92.0
 31
0.0
  0
LINE
  8
0
  6
CONTINUOUS
 62
     1
 10
150.0
 20
87.0
 30
0.0
 11
150.0
 21
92.0
 31
0.0
  0
LINE
  8
0
  6
CONTINUOUS
 62
     1
 10
156.0
 20
92.0
 30
0.0
 11
156.0
 21
87.0
 31
0.0
  0
ARC
  8
0
  6
CONTINUOUS
 62
     1
 10
155.2
 20
94.3
 30
0.0
 40
1.3
 50
0.0
 51
90.0
  0
LINE
  8
0
  6
CONTINUOUS
 62
     1
 10
155.2
 20
95.6
 30
0.0
 11
153.5
 21
95.6
 31
0.0
  0
LINE
  8
0
  6
CONTINUOUS
 62
     1
 10
153.5
 20
95.6
 30
0.0
 11
153.5
 21
94.2
 31
0.0
  0
LINE
  8
0
  6
CONTINUOUS
 62
     1
 10
153.5
 20
94.2
 30
0.0
 11
152.5
 21
94.2
 31
0.0
  0
LINE
  8
0
  6
CONTINUOUS
 62
     1
 10
152.5
 20
94.2
 30
0.0
 11
152.5
 21
95.6
 31
0.0
  0
LINE
  8
0
  6
CONTINUOUS
 62
     1
 10
152.5
 20
95.6
 30
0.0
 11
150.8
 21
95.6
 31
0.0
  0
ARC
  8
0
  6
CONTINUOUS
 62
     1
 10
150.8
 20
94.3
 30
0.0
 40
1.3
 50
90.0
 51
180.0
  0
LINE
  8
0
  6
CONTINUOUS
 62
     1
 10
156.5
 20
92.0
 30
0.0
 11
156.5
 21
94.3
 31
0.0
  0
LINE
  8
0
  6
CONTINUOUS
 62
     1
 10
149.5
 20
94.3
 30
0.0
 11
149.5
 21
92.0
 31
0.0
  0
LINE
  8
0
  6
CONTINUOUS
 62
     1
 10
156.5
 20
93.0
 30
0.0
 11
149.5
 21
93.0
 31
0.0
  0
LINE
  8
0
  6
CONTINUOUS
 62
     1
 10
156.5
 20
92.0
 30
0.0
 11
149.5
 21
92.0
 31
0.0
  0
LINE
  8
0
  6
CONTINUOUS
 62
     1
 10
156.0
 20
87.0
 30
0.0
 11
156.0
 21
92.0
 31
0.0
  0
LINE
  8
0
  6
CONTINUOUS
 62
     1
 10
150.0
 20
92.0
 30
0.0
 11
150.0
 21
87.0
 31
0.0
  0
LINE
  8
0
  6
LTYPE1
 62
     2
 10
69.0
 20
143.0
 30
0.0
 11
69.0
 21
137.0
 31
0.0
  0
LINE
  8
0
  6
LTYPE1
 62
     2
 10
171.0
 20
143.0
 30
0.0
 11
171.0
 21
137.0
 31
0.0
  0
LINE
  8
0
  6
CONTINUOUS
 62
     2
 10
172.125
 20
138.051442841
 30
0.0
 11
172.772047613
 21
135.636628276
 31
0.0
  0
LINE
  8
0
  6
CONTINUOUS
 62
     2
 10
172.125
 20
138.051442841
 30
0.0
 11
173.892766953
 21
136.283675889
 31
0.0
  0
LINE
  8
0
  6
CONTINUOUS
 62
     2
 10
172.125
 20
138.051442841
 30
0.0
 11
179.660254038
 21
125.0
 31
0.0
  0
TEXT
  8
0
  6
CONTINUOUS
 62
     2
 10
179.660254038
 20
126.0
 30
0.3
 40
3.0
  1
２－φ４．５穴
 50
0.0
 41
0.9
 51
0.0
  7
KANJI0
  0
LINE
  8
0
  6
LTYPE1
 62
     2
 10
58.0
 20
140.0
 30
0.0
 11
182.0
 21
140.0
 31
0.0
  0
LINE
  8
0
  6
LTYPE1
 62
     2
 10
87.0
 20
145.0
 30
0.0
 11
87.0
 21
135.0
 31
0.0
  0
LINE
  8
0
  6
LTYPE1
 62
     2
 10
153.0
 20
145.0
 30
0.0
 11
153.0
 21
135.0
 31
0.0
  0
LINE
  8
0
  6
CONTINUOUS
 62
     2
 10
154.75
 20
136.968911087
 30
0.0
 11
155.397047613
 21
134.554096521
 31
0.0
  0
LINE
  8
0
  6
CONTINUOUS
 62
     2
 10
154.75
 20
136.968911087
 30
0.0
 11
156.517766953
 21
135.201144134
 31
0.0
  0
LINE
  8
0
  6
CONTINUOUS
 62
     2
 10
154.75
 20
136.968911087
 30
0.0
 11
164.547005384
 21
120.0
 31
0.0
  0
LINE
  8
0
  6
CONTINUOUS
 62
     2
 10
75.0
 20
156.0
 30
0.0
 11
75.0
 21
167.0
 31
0.0
  0
LINE
  8
0
  6
CONTINUOUS
 62
     2
 10
75.0
 20
165.0
 30
0.0
 11
77.414814566
 21
164.352952387
 31
0.0
  0
LINE
  8
0
  6
CONTINUOUS
 62
     2
 10
75.0
 20
165.0
 30
0.0
 11
77.414814566
 21
165.647047613
 31
0.0
  0
LINE
  8
0
  6
CONTINUOUS
 62
     2
 10
75.0
 20
165.0
 30
0.0
 11
165.0
 21
165.0
 31
0.0
  0
LINE
  8
0
  6
CONTINUOUS
 62
     2
 10
165.0
 20
165.0
 30
0.0
 11
162.585185434
 21
165.647047613
 31
0.0
  0
LINE
  8
0
  6
CONTINUOUS
 62
     2
 10
165.0
 20
165.0
 30
0.0
 11
162.585185434
 21
164.352952387
 31
0.0
  0
LINE
  8
0
  6
CONTINUOUS
 62
     2
 10
165.0
 20
156.0
 30
0.0
 11
165.0
 21
167.0
 31
0.0
  0
TEXT
  8
0
  6
CONTINUOUS
 62
     2
 10
118.05
 20
166.0
 30
0.3
 40
3.0
  1
９０
 50
0.0
 41
0.6
 51
0.0
  7
KANJI2
  0
LINE
  8
0
  6
CONTINUOUS
 62
     2
 10
171.0
 20
143.0
 30
0.0
 11
171.0
 21
172.0
 31
0.0
  0
LINE
  8
0
  6
CONTINUOUS
 62
     2
 10
171.0
 20
170.0
 30
0.0
 11
168.585185434
 21
170.647047613
 31
0.0
  0
LINE
  8
0
  6
CONTINUOUS
 62
     2
 10
171.0
 20
170.0
 30
0.0
 11
168.585185434
 21
169.352952387
 31
0.0
  0
LINE
  8
0
  6
CONTINUOUS
 62
     2
 10
171.0
 20
170.0
 30
0.0
 11
69.0
 21
170.0
 31
0.0
  0
LINE
  8
0
  6
CONTINUOUS
 62
     2
 10
69.0
 20
170.0
 30
0.0
 11
71.414814566
 21
169.352952387
 31
0.0
  0
LINE
  8
0
  6
CONTINUOUS
 62
     2
 10
69.0
 20
170.0
 30
0.0
 11
71.414814566
 21
170.647047613
 31
0.0
  0
LINE
  8
0
  6
CONTINUOUS
 62
     2
 10
69.0
 20
143.0
 30
0.0
 11
69.0
 21
172.0
 31
0.0
  0
TEXT
  8
0
  6
CONTINUOUS
 62
     2
 10
114.57
 20
171.0
 30
0.3
 40
3.0
  1
１０２
 50
0.0
 41
0.6
 51
0.0
  7
KANJI2
  0
TEXT
  8
0
  6
CONTINUOUS
 62
     2
 10
120.57
 20
171.0
 30
0.18
 40
1.8
  1
±０．５
 50
0.0
 41
0.6
 51
0.0
  7
KANJI3
  0
LINE
  8
0
  6
CONTINUOUS
 62
     2
 10
63.0
 20
142.0
 30
0.0
 11
63.0
 21
177.0
 31
0.0
  0
LINE
  8
0
  6
CONTINUOUS
 62
     2
 10
63.0
 20
175.0
 30
0.0
 11
65.414814566
 21
174.352952387
 31
0.0
  0
LINE
  8
0
  6
CONTINUOUS
 62
     2
 10
63.0
 20
175.0
 30
0.0
 11
65.414814566
 21
175.647047613
 31
0.0
  0
LINE
  8
0
  6
CONTINUOUS
 62
     2
 10
63.0
 20
175.0
 30
0.0
 11
177.0
 21
175.0
 31
0.0
  0
LINE
  8
0
  6
CONTINUOUS
 62
     2
 10
177.0
 20
175.0
 30
0.0
 11
174.585185434
 21
175.647047613
 31
0.0
  0
LINE
  8
0
  6
CONTINUOUS
 62
     2
 10
177.0
 20
175.0
 30
0.0
 11
174.585185434
 21
174.352952387
 31
0.0
  0
LINE
  8
0
  6
CONTINUOUS
 62
     2
 10
177.0
 20
142.0
 30
0.0
 11
177.0
 21
177.0
 31
0.0
  0
TEXT
  8
0
  6
CONTINUOUS
 62
     2
 10
117.0
 20
176.0
 30
0.3
 40
3.0
  1
１１４
 50
0.0
 41
0.6
 51
0.0
  7
KANJI2
  0
LINE
  8
0
  6
CONTINUOUS
 62
     2
 10
79.0
 20
160.0
 30
0.0
 11
56.0
 21
160.0
 31
0.0
  0
LINE
  8
0
  6
CONTINUOUS
 62
     2
 10
58.0
 20
160.0
 30
0.0
 11
57.352952387
 21
157.585185434
 31
0.0
  0
LINE
  8
0
  6
CONTINUOUS
 62
     2
 10
58.0
 20
160.0
 30
0.0
 11
58.647047613
 21
157.585185434
 31
0.0
  0
LINE
  8
0
  6
CONTINUOUS
 62
     2
 10
58.0
 20
160.0
 30
0.0
 11
58.0
 21
120.0
 31
0.0
  0
LINE
  8
0
  6
CONTINUOUS
 62
     2
 10
58.0
 20
120.0
 30
0.0
 11
58.647047613
 21
122.414814566
 31
0.0
  0
LINE
  8
0
  6
CONTINUOUS
 62
     2
 10
58.0
 20
120.0
 30
0.0
 11
57.352952387
 21
122.414814566
 31
0.0
  0
LINE
  8
0
  6
CONTINUOUS
 62
     2
 10
79.0
 20
120.0
 30
0.0
 11
56.0
 21
120.0
 31
0.0
  0
TEXT
  8
0
  6
CONTINUOUS
 62
     2
 10
57.0
 20
138.05
 30
0.3
 40
3.0
  1
４０
 50
90.0
 41
0.6
 51
0.0
  7
KANJI2
  0
LINE
  8
0
  6
LTYPE1
 62
     2
 10
120.0
 20
165.0
 30
0.0
 11
120.0
 21
115.0
 31
0.0
  0
LINE
  8
0
  6
LTYPE1
 62
     2
 10
109.0
 20
145.0
 30
0.0
 11
109.0
 21
135.0
 31
0.0
  0
LINE
  8
0
  6
LTYPE1
 62
     2
 10
131.0
 20
135.0
 30
0.0
 11
131.0
 21
145.0
 31
0.0
  0
LINE
  8
0
  6
CONTINUOUS
 62
     2
 10
169.875
 20
141.948557159
 30
0.0
 11
169.475
 21
143.948557159
 31
0.0
  0
LINE
  8
0
  6
CONTINUOUS
 62
     2
 10
169.875
 20
141.948557159
 30
0.0
 11
168.475
 21
143.248557159
 31
0.0
  0
LINE
  8
0
  6
CONTINUOUS
 62
     2
 10
169.875
 20
141.948557159
 30
0.0
 11
168.200684219
 21
144.848557159
 31
0.0
  0
LINE
  8
0
  6
LTYPE1
 62
     2
 10
87.0
 20
145.0
 30
0.0
 11
87.0
 21
135.0
 31
0.0
  0
LINE
  8
0
  6
LTYPE2
 62
     2
 10
87.0
 20
145.0
 30
0.0
 11
87.0
 21
135.0
 31
0.0
  0
LINE
  8
0
  6
LTYPE3
 62
     2
 10
81.1
 20
116.3
 30
0.0
 11
92.9
 21
116.3
 31
0.0
  0
ARC
  8
0
  6
LTYPE3
 62
     2
 10
87.0
 20
140.4
 30
0.0
 40
5.9
 50
0.0
 51
180.0
  0
LINE
  8
0
  6
LTYPE3
 62
     2
 10
81.1
 20
140.400000052
 30
0.0
 11
81.1
 21
116.3
 31
0.0
  0
LINE
  8
0
  6
LTYPE3
 62
     2
 10
92.9
 20
116.3
 30
0.0
 11
92.9
 21
140.400000052
 31
0.0
  0
ARC
  8
0
  6
LTYPE3
 62
     2
 10
87.0
 20
138.4
 30
0.0
 40
5.9
 50
180.0
 51
0.0
  0
LINE
  8
0
  6
LTYPE1
 62
     2
 10
109.0
 20
145.0
 30
0.0
 11
109.0
 21
135.0
 31
0.0
  0
LINE
  8
0
  6
LTYPE2
 62
     2
 10
109.0
 20
145.0
 30
0.0
 11
109.0
 21
135.0
 31
0.0
  0
LINE
  8
0
  6
LTYPE3
 62
     2
 10
103.1
 20
116.3
 30
0.0
 11
114.9
 21
116.3
 31
0.0
  0
ARC
  8
0
  6
LTYPE3
 62
     2
 10
109.0
 20
140.4
 30
0.0
 40
5.9
 50
0.0
 51
180.0
  0
LINE
  8
0
  6
LTYPE3
 62
     2
 10
103.1
 20
140.400000052
 30
0.0
 11
103.1
 21
116.3
 31
0.0
  0
LINE
  8
0
  6
LTYPE3
 62
     2
 10
114.9
 20
116.3
 30
0.0
 11
114.9
 21
140.400000052
 31
0.0
  0
ARC
  8
0
  6
LTYPE3
 62
     2
 10
109.0
 20
138.4
 30
0.0
 40
5.9
 50
180.0
 51
0.0
  0
LINE
  8
0
  6
LTYPE1
 62
     2
 10
131.0
 20
145.0
 30
0.0
 11
131.0
 21
135.0
 31
0.0
  0
LINE
  8
0
  6
LTYPE2
 62
     2
 10
131.0
 20
145.0
 30
0.0
 11
131.0
 21
135.0
 31
0.0
  0
LINE
  8
0
  6
LTYPE3
 62
     2
 10
125.1
 20
116.3
 30
0.0
 11
136.9
 21
116.3
 31
0.0
  0
ARC
  8
0
  6
LTYPE3
 62
     2
 10
131.0
 20
140.4
 30
0.0
 40
5.9
 50
0.0
 51
180.0
  0
LINE
  8
0
  6
LTYPE3
 62
     2
 10
125.1
 20
140.400000052
 30
0.0
 11
125.1
 21
116.3
 31
0.0
  0
LINE
  8
0
  6
LTYPE3
 62
     2
 10
136.9
 20
116.3
 30
0.0
 11
136.9
 21
140.400000052
 31
0.0
  0
ARC
  8
0
  6
LTYPE3
 62
     2
 10
131.0
 20
138.4
 30
0.0
 40
5.9
 50
180.0
 51
0.0
  0
LINE
  8
0
  6
LTYPE1
 62
     2
 10
153.0
 20
145.0
 30
0.0
 11
153.0
 21
135.0
 31
0.0
  0
LINE
  8
0
  6
LTYPE2
 62
     2
 10
153.0
 20
145.0
 30
0.0
 11
153.0
 21
135.0
 31
0.0
  0
LINE
  8
0
  6
LTYPE3
 62
     2
 10
147.1
 20
116.3
 30
0.0
 11
158.9
 21
116.3
 31
0.0
  0
ARC
  8
0
  6
LTYPE3
 62
     2
 10
153.0
 20
140.4
 30
0.0
 40
5.9
 50
0.0
 51
180.0
  0
LINE
  8
0
  6
LTYPE3
 62
     2
 10
147.1
 20
140.400000052
 30
0.0
 11
147.1
 21
116.3
 31
0.0
  0
LINE
  8
0
  6
LTYPE3
 62
     2
 10
158.9
 20
116.3
 30
0.0
 11
158.9
 21
140.400000052
 31
0.0
  0
ARC
  8
0
  6
LTYPE3
 62
     2
 10
153.0
 20
138.4
 30
0.0
 40
5.9
 50
180.0
 51
0.0
  0
LINE
  8
0
  6
LTYPE1
 62
     2
 10
69.0
 20
37.0
 30
0.0
 11
69.0
 21
48.3
 31
0.0
  0
LINE
  8
0
  6
LTYPE4
 62
     2
 10
71.25
 20
40.0
 30
0.0
 11
71.25
 21
45.0
 31
0.0
  0
LINE
  8
0
  6
LTYPE4
 62
     2
 10
66.75
 20
40.0
 30
0.0
 11
66.75
 21
45.0
 31
0.0
  0
LINE
  8
0
  6
LTYPE1
 62
     2
 10
171.0
 20
37.0
 30
0.0
 11
171.0
 21
48.3
 31
0.0
  0
LINE
  8
0
  6
LTYPE4
 62
     2
 10
168.75
 20
40.0
 30
0.0
 11
168.75
 21
45.0
 31
0.0
  0
LINE
  8
0
  6
LTYPE4
 62
     2
 10
173.25
 20
40.0
 30
0.0
 11
173.25
 21
45.0
 31
0.0
  0
CIRCLE
  8
0
  6
CONTINUOUS
 62
     2
 10
85.0
 20
73.5
 30
0.0
 40
1.5
  0
CIRCLE
  8
0
  6
CONTINUOUS
 62
     2
 10
85.0
 20
65.5
 30
0.0
 40
1.5
  0
CIRCLE
  8
0
  6
CONTINUOUS
 62
     2
 10
85.0
 20
57.5
 30
0.0
 40
1.5
  0
CIRCLE
  8
0
  6
CONTINUOUS
 62
     2
 10
85.0
 20
49.5
 30
0.0
 40
1.5
  0
CIRCLE
  8
0
  6
CONTINUOUS
 62
     2
 10
92.0
 20
73.5
 30
0.0
 40
1.5
  0
CIRCLE
  8
0
  6
CONTINUOUS
 62
     2
 10
92.0
 20
65.5
 30
0.0
 40
1.5
  0
CIRCLE
  8
0
  6
CONTINUOUS
 62
     2
 10
92.0
 20
57.5
 30
0.0
 40
1.5
  0
CIRCLE
  8
0
  6
CONTINUOUS
 62
     2
 10
92.0
 20
49.5
 30
0.0
 40
1.5
  0
CIRCLE
  8
0
  6
CONTINUOUS
 62
     2
 10
99.0
 20
73.5
 30
0.0
 40
1.5
  0
CIRCLE
  8
0
  6
CONTINUOUS
 62
     2
 10
99.0
 20
65.5
 30
0.0
 40
1.5
  0
CIRCLE
  8
0
  6
CONTINUOUS
 62
     2
 10
99.0
 20
57.5
 30
0.0
 40
1.5
  0
CIRCLE
  8
0
  6
CONTINUOUS
 62
     2
 10
99.0
 20
49.5
 30
0.0
 40
1.5
  0
CIRCLE
  8
0
  6
CONTINUOUS
 62
     2
 10
106.0
 20
73.5
 30
0.0
 40
1.5
  0
CIRCLE
  8
0
  6
CONTINUOUS
 62
     2
 10
106.0
 20
49.5
 30
0.0
 40
1.5
  0
CIRCLE
  8
0
  6
CONTINUOUS
 62
     2
 10
113.0
 20
73.5
 30
0.0
 40
1.5
  0
CIRCLE
  8
0
  6
CONTINUOUS
 62
     2
 10
113.0
 20
49.5
 30
0.0
 40
1.5
  0
CIRCLE
  8
0
  6
CONTINUOUS
 62
     2
 10
120.0
 20
73.5
 30
0.0
 40
1.5
  0
CIRCLE
  8
0
  6
CONTINUOUS
 62
     2
 10
120.0
 20
49.5
 30
0.0
 40
1.5
  0
CIRCLE
  8
0
  6
CONTINUOUS
 62
     2
 10
127.0
 20
73.5
 30
0.0
 40
1.5
  0
CIRCLE
  8
0
  6
CONTINUOUS
 62
     2
 10
127.0
 20
49.5
 30
0.0
 40
1.5
  0
CIRCLE
  8
0
  6
CONTINUOUS
 62
     2
 10
134.0
 20
73.5
 30
0.0
 40
1.5
  0
CIRCLE
  8
0
  6
CONTINUOUS
 62
     2
 10
134.0
 20
49.5
 30
0.0
 40
1.5
  0
CIRCLE
  8
0
  6
CONTINUOUS
 62
     2
 10
141.0
 20
73.5
 30
0.0
 40
1.5
  0
CIRCLE
  8
0
  6
CONTINUOUS
 62
     2
 10
141.0
 20
65.5
 30
0.0
 40
1.5
  0
CIRCLE
  8
0
  6
CONTINUOUS
 62
     2
 10
141.0
 20
57.5
 30
0.0
 40
1.5
  0
CIRCLE
  8
0
  6
CONTINUOUS
 62
     2
 10
141.0
 20
49.5
 30
0.0
 40
1.5
  0
CIRCLE
  8
0
  6
CONTINUOUS
 62
     2
 10
148.0
 20
73.5
 30
0.0
 40
1.5
  0
CIRCLE
  8
0
  6
CONTINUOUS
 62
     2
 10
148.0
 20
65.5
 30
0.0
 40
1.5
  0
CIRCLE
  8
0
  6
CONTINUOUS
 62
     2
 10
148.0
 20
57.5
 30
0.0
 40
1.5
  0
CIRCLE
  8
0
  6
CONTINUOUS
 62
     2
 10
148.0
 20
49.5
 30
0.0
 40
1.5
  0
CIRCLE
  8
0
  6
CONTINUOUS
 62
     2
 10
155.0
 20
73.5
 30
0.0
 40
1.5
  0
CIRCLE
  8
0
  6
CONTINUOUS
 62
     2
 10
155.0
 20
65.5
 30
0.0
 40
1.5
  0
CIRCLE
  8
0
  6
CONTINUOUS
 62
     2
 10
155.0
 20
57.5
 30
0.0
 40
1.5
  0
CIRCLE
  8
0
  6
CONTINUOUS
 62
     2
 10
155.0
 20
49.5
 30
0.0
 40
1.5
  0
CIRCLE
  8
0
  6
CONTINUOUS
 62
     2
 10
87.0
 20
81.0
 30
0.0
 40
2.0
  0
LINE
  8
0
  6
CONTINUOUS
 62
     2
 10
88.0
 20
82.0
 30
0.0
 11
86.0
 21
80.0
 31
0.0
  0
LINE
  8
0
  6
CONTINUOUS
 62
     2
 10
86.0
 20
82.0
 30
0.0
 11
88.0
 21
80.0
 31
0.0
  0
CIRCLE
  8
0
  6
CONTINUOUS
 62
     2
 10
153.0
 20
81.0
 30
0.0
 40
2.0
  0
LINE
  8
0
  6
CONTINUOUS
 62
     2
 10
152.0
 20
82.0
 30
0.0
 11
154.0
 21
80.0
 31
0.0
  0
LINE
  8
0
  6
CONTINUOUS
 62
     2
 10
154.0
 20
82.0
 30
0.0
 11
152.0
 21
80.0
 31
0.0
  0
LINE
  8
0
  6
CONTINUOUS
 62
     2
 10
62.0
 20
40.0
 30
0.0
 11
56.0
 21
40.0
 31
0.0
  0
LINE
  8
0
  6
CONTINUOUS
 62
     2
 10
58.0
 20
40.0
 30
0.0
 11
57.352952387
 21
37.585185434
 31
0.0
  0
LINE
  8
0
  6
CONTINUOUS
 62
     2
 10
58.0
 20
40.0
 30
0.0
 11
58.647047613
 21
37.585185434
 31
0.0
  0
LINE
  8
0
  6
CONTINUOUS
 62
     2
 10
58.0
 20
35.0
 30
0.0
 11
58.0
 21
50.0
 31
0.0
  0
LINE
  8
0
  6
CONTINUOUS
 62
     2
 10
58.0
 20
45.0
 30
0.0
 11
58.647047613
 21
47.414814566
 31
0.0
  0
LINE
  8
0
  6
CONTINUOUS
 62
     2
 10
58.0
 20
45.0
 30
0.0
 11
57.352952387
 21
47.414814566
 31
0.0
  0
LINE
  8
0
  6
CONTINUOUS
 62
     2
 10
62.0
 20
45.0
 30
0.0
 11
56.0
 21
45.0
 31
0.0
  0
TEXT
  8
0
  6
CONTINUOUS
 62
     2
 10
57.0
 20
41.6
 30
0.3
 40
3.0
  1
５
 50
90.0
 41
0.6
 51
0.0
  7
KANJI2
  0
LINE
  8
0
  6
CONTINUOUS
 62
     2
 10
56.0
 20
40.0
 30
0.0
 11
51.0
 21
40.0
 31
0.0
  0
LINE
  8
0
  6
CONTINUOUS
 62
     2
 10
53.0
 20
40.0
 30
0.0
 11
53.647047613
 21
42.414814566
 31
0.0
  0
LINE
  8
0
  6
CONTINUOUS
 62
     2
 10
53.0
 20
40.0
 30
0.0
 11
52.352952387
 21
42.414814566
 31
0.0
  0
LINE
  8
0
  6
CONTINUOUS
 62
     2
 10
53.0
 20
40.0
 30
0.0
 11
53.0
 21
87.0
 31
0.0
  0
LINE
  8
0
  6
CONTINUOUS
 62
     2
 10
53.0
 20
87.0
 30
0.0
 11
52.352952387
 21
84.585185434
 31
0.0
  0
LINE
  8
0
  6
CONTINUOUS
 62
     2
 10
53.0
 20
87.0
 30
0.0
 11
53.647047613
 21
84.585185434
 31
0.0
  0
LINE
  8
0
  6
CONTINUOUS
 62
     2
 10
75.5
 20
87.0
 30
0.0
 11
51.0
 21
87.0
 31
0.0
  0
TEXT
  8
0
  6
CONTINUOUS
 62
     2
 10
52.0
 20
61.55
 30
0.3
 40
3.0
  1
４７
 50
90.0
 41
0.6
 51
0.0
  7
KANJI2
  0
LINE
  8
0
  6
CONTINUOUS
 62
     2
 10
53.0
 20
87.0
 30
0.0
 11
53.647047613
 21
89.414814566
 31
0.0
  0
LINE
  8
0
  6
CONTINUOUS
 62
     2
 10
53.0
 20
87.0
 30
0.0
 11
52.352952387
 21
89.414814566
 31
0.0
  0
LINE
  8
0
  6
LTYPE1
 62
     2
 10
87.0
 20
100.0
 30
0.0
 11
87.0
 21
92.0
 31
0.0
  0
LINE
  8
0
  6
LTYPE1
 62
     2
 10
153.0
 20
100.0
 30
0.0
 11
153.0
 21
92.0
 31
0.0
  0
LINE
  8
0
  6
LTYPE1
 62
     2
 10
131.0
 20
100.0
 30
0.0
 11
131.0
 21
92.0
 31
0.0
  0
LINE
  8
0
  6
LTYPE1
 62
     2
 10
109.0
 20
100.0
 30
0.0
 11
109.0
 21
92.0
 31
0.0
  0
LINE
  8
0
  6
LTYPE1
 62
     2
 10
120.0
 20
100.0
 30
0.0
 11
120.0
 21
35.0
 31
0.0
  0
LINE
  8
0
  6
CONTINUOUS
 62
     2
 10
51.0
 20
87.0
 30
0.0
 11
55.0
 21
87.0
 31
0.0
  0
LINE
  8
0
  6
CONTINUOUS
 62
     2
 10
53.0
 20
87.0
 30
0.0
 11
53.647047613
 21
89.414814566
 31
0.0
  0
LINE
  8
0
  6
CONTINUOUS
 62
     2
 10
53.0
 20
87.0
 30
0.0
 11
52.352952387
 21
89.414814566
 31
0.0
  0
LINE
  8
0
  6
CONTINUOUS
 62
     2
 10
53.0
 20
87.0
 30
0.0
 11
53.0
 21
95.6
 31
0.0
  0
LINE
  8
0
  6
CONTINUOUS
 62
     2
 10
53.0
 20
95.6
 30
0.0
 11
52.352952387
 21
93.185185434
 31
0.0
  0
LINE
  8
0
  6
CONTINUOUS
 62
     2
 10
53.0
 20
95.6
 30
0.0
 11
53.647047613
 21
93.185185434
 31
0.0
  0
LINE
  8
0
  6
CONTINUOUS
 62
     2
 10
83.8
 20
95.6
 30
0.0
 11
51.0
 21
95.6
 31
0.0
  0
TEXT
  8
0
  6
CONTINUOUS
 62
     2
 10
52.05
 20
90.4
 30
0.3
 40
3.0
  1
９
 50
90.0
 41
0.6
 51
0.0
  7
KANJI2
  0
LINE
  8
0
  6
LTYPE1
 62
     2
 10
87.0
 20
100.0
 30
0.0
 11
87.0
 21
92.0
 31
0.0
  0
LINE
  8
0
  6
LTYPE2
 62
     2
 10
87.0
 20
100.0
 30
0.0
 11
87.0
 21
92.0
 31
0.0
  0
LINE
  8
0
  6
LTYPE3
 62
     2
 10
81.1
 20
87.0
 30
0.0
 11
92.9
 21
87.0
 31
0.0
  0
ARC
  8
0
  6
LTYPE3
 62
     2
 10
85.6
 20
100.0
 30
0.0
 40
4.5
 50
90.0
 51
180.0
  0
LINE
  8
0
  6
LTYPE3
 62
     2
 10
81.1
 20
100.0
 30
0.0
 11
81.1
 21
87.0
 31
0.0
  0
ARC
  8
0
  6
LTYPE3
 62
     2
 10
88.4
 20
100.0
 30
0.0
 40
4.5
 50
0.0
 51
90.0
  0
LINE
  8
0
  6
LTYPE3
 62
     2
 10
92.9
 20
87.0
 30
0.0
 11
92.9
 21
100.0
 31
0.0
  0
LINE
  8
0
  6
LTYPE3
 62
     2
 10
88.4
 20
104.5
 30
0.0
 11
85.6
 21
104.5
 31
0.0
  0
ARC
  8
0
  6
LTYPE3
 62
     2
 10
85.6
 20
98.0
 30
0.0
 40
3.0
 50
90.0
 51
180.0
  0
LINE
  8
0
  6
LTYPE3
 62
     2
 10
82.6
 20
98.0
 30
0.0
 11
82.6
 21
87.0
 31
0.0
  0
ARC
  8
0
  6
LTYPE3
 62
     2
 10
88.4
 20
98.0
 30
0.0
 40
3.0
 50
0.0
 51
90.0
  0
LINE
  8
0
  6
LTYPE3
 62
     2
 10
91.4
 20
98.0
 30
0.0
 11
91.4
 21
87.0
 31
0.0
  0
LINE
  8
0
  6
LTYPE3
 62
     2
 10
85.6
 20
101.0
 30
0.0
 11
88.4
 21
101.0
 31
0.0
  0
LINE
  8
0
  6
LTYPE3
 62
     2
 10
83.4
 20
93.1
 30
0.0
 11
82.6
 21
93.9
 31
0.0
  0
LINE
  8
0
  6
LTYPE3
 62
     2
 10
83.4
 20
93.1
 30
0.0
 11
82.6
 21
92.3
 31
0.0
  0
LINE
  8
0
  6
LTYPE3
 62
     2
 10
82.6
 20
92.0
 30
0.0
 11
84.25
 21
91.047372056
 31
0.0
  0
LINE
  8
0
  6
LTYPE3
 62
     2
 10
82.6
 20
87.0
 30
0.0
 11
84.25
 21
87.952627944
 31
0.0
  0
LINE
  8
0
  6
LTYPE3
 62
     2
 10
84.25
 20
91.047372056
 30
0.0
 11
84.25
 21
87.952627944
 31
0.0
  0
LINE
  8
0
  6
LTYPE3
 62
     2
 10
90.6
 20
93.1
 30
0.0
 11
91.4
 21
93.9
 31
0.0
  0
LINE
  8
0
  6
LTYPE3
 62
     2
 10
90.6
 20
93.1
 30
0.0
 11
91.4
 21
92.3
 31
0.0
  0
LINE
  8
0
  6
LTYPE3
 62
     2
 10
91.4
 20
92.0
 30
0.0
 11
89.75
 21
91.047372056
 31
0.0
  0
LINE
  8
0
  6
LTYPE3
 62
     2
 10
91.4
 20
87.0
 30
0.0
 11
89.75
 21
87.952627944
 31
0.0
  0
LINE
  8
0
  6
LTYPE3
 62
     2
 10
89.75
 20
91.047372056
 30
0.0
 11
89.75
 21
87.952627944
 31
0.0
  0
LINE
  8
0
  6
LTYPE1
 62
     2
 10
109.0
 20
100.0
 30
0.0
 11
109.0
 21
92.0
 31
0.0
  0
LINE
  8
0
  6
LTYPE2
 62
     2
 10
109.0
 20
100.0
 30
0.0
 11
109.0
 21
92.0
 31
0.0
  0
LINE
  8
0
  6
LTYPE3
 62
     2
 10
103.1
 20
87.0
 30
0.0
 11
114.9
 21
87.0
 31
0.0
  0
ARC
  8
0
  6
LTYPE3
 62
     2
 10
107.6
 20
100.0
 30
0.0
 40
4.5
 50
90.0
 51
180.0
  0
LINE
  8
0
  6
LTYPE3
 62
     2
 10
103.1
 20
100.0
 30
0.0
 11
103.1
 21
87.0
 31
0.0
  0
ARC
  8
0
  6
LTYPE3
 62
     2
 10
110.4
 20
100.0
 30
0.0
 40
4.5
 50
0.0
 51
90.0
  0
LINE
  8
0
  6
LTYPE3
 62
     2
 10
114.9
 20
87.0
 30
0.0
 11
114.9
 21
100.0
 31
0.0
  0
LINE
  8
0
  6
LTYPE3
 62
     2
 10
110.4
 20
104.5
 30
0.0
 11
107.6
 21
104.5
 31
0.0
  0
ARC
  8
0
  6
LTYPE3
 62
     2
 10
107.6
 20
98.0
 30
0.0
 40
3.0
 50
90.0
 51
180.0
  0
LINE
  8
0
  6
LTYPE3
 62
     2
 10
104.6
 20
98.0
 30
0.0
 11
104.6
 21
87.0
 31
0.0
  0
ARC
  8
0
  6
LTYPE3
 62
     2
 10
110.4
 20
98.0
 30
0.0
 40
3.0
 50
0.0
 51
90.0
  0
LINE
  8
0
  6
LTYPE3
 62
     2
 10
113.4
 20
98.0
 30
0.0
 11
113.4
 21
87.0
 31
0.0
  0
LINE
  8
0
  6
LTYPE3
 62
     2
 10
107.6
 20
101.0
 30
0.0
 11
110.4
 21
101.0
 31
0.0
  0
LINE
  8
0
  6
LTYPE3
 62
     2
 10
105.4
 20
93.1
 30
0.0
 11
104.6
 21
93.9
 31
0.0
  0
LINE
  8
0
  6
LTYPE3
 62
     2
 10
105.4
 20
93.1
 30
0.0
 11
104.6
 21
92.3
 31
0.0
  0
LINE
  8
0
  6
LTYPE3
 62
     2
 10
104.6
 20
92.0
 30
0.0
 11
106.25
 21
91.047372056
 31
0.0
  0
LINE
  8
0
  6
LTYPE3
 62
     2
 10
104.6
 20
87.0
 30
0.0
 11
106.25
 21
87.952627944
 31
0.0
  0
LINE
  8
0
  6
LTYPE3
 62
     2
 10
106.25
 20
91.047372056
 30
0.0
 11
106.25
 21
87.952627944
 31
0.0
  0
LINE
  8
0
  6
LTYPE3
 62
     2
 10
112.6
 20
93.1
 30
0.0
 11
113.4
 21
93.9
 31
0.0
  0
LINE
  8
0
  6
LTYPE3
 62
     2
 10
112.6
 20
93.1
 30
0.0
 11
113.4
 21
92.3
 31
0.0
  0
LINE
  8
0
  6
LTYPE3
 62
     2
 10
113.4
 20
92.0
 30
0.0
 11
111.75
 21
91.047372056
 31
0.0
  0
LINE
  8
0
  6
LTYPE3
 62
     2
 10
113.4
 20
87.0
 30
0.0
 11
111.75
 21
87.952627944
 31
0.0
  0
LINE
  8
0
  6
LTYPE3
 62
     2
 10
111.75
 20
91.047372056
 30
0.0
 11
111.75
 21
87.952627944
 31
0.0
  0
LINE
  8
0
  6
LTYPE1
 62
     2
 10
131.0
 20
100.0
 30
0.0
 11
131.0
 21
92.0
 31
0.0
  0
LINE
  8
0
  6
LTYPE2
 62
     2
 10
131.0
 20
100.0
 30
0.0
 11
131.0
 21
92.0
 31
0.0
  0
LINE
  8
0
  6
LTYPE3
 62
     2
 10
125.1
 20
87.0
 30
0.0
 11
136.9
 21
87.0
 31
0.0
  0
ARC
  8
0
  6
LTYPE3
 62
     2
 10
129.6
 20
100.0
 30
0.0
 40
4.5
 50
90.0
 51
180.0
  0
LINE
  8
0
  6
LTYPE3
 62
     2
 10
125.1
 20
100.0
 30
0.0
 11
125.1
 21
87.0
 31
0.0
  0
ARC
  8
0
  6
LTYPE3
 62
     2
 10
132.4
 20
100.0
 30
0.0
 40
4.5
 50
0.0
 51
90.0
  0
LINE
  8
0
  6
LTYPE3
 62
     2
 10
136.9
 20
87.0
 30
0.0
 11
136.9
 21
100.0
 31
0.0
  0
LINE
  8
0
  6
LTYPE3
 62
     2
 10
132.4
 20
104.5
 30
0.0
 11
129.6
 21
104.5
 31
0.0
  0
ARC
  8
0
  6
LTYPE3
 62
     2
 10
129.6
 20
98.0
 30
0.0
 40
3.0
 50
90.0
 51
180.0
  0
LINE
  8
0
  6
LTYPE3
 62
     2
 10
126.6
 20
98.0
 30
0.0
 11
126.6
 21
87.0
 31
0.0
  0
ARC
  8
0
  6
LTYPE3
 62
     2
 10
132.4
 20
98.0
 30
0.0
 40
3.0
 50
0.0
 51
90.0
  0
LINE
  8
0
  6
LTYPE3
 62
     2
 10
135.4
 20
98.0
 30
0.0
 11
135.4
 21
87.0
 31
0.0
  0
LINE
  8
0
  6
LTYPE3
 62
     2
 10
129.6
 20
101.0
 30
0.0
 11
132.4
 21
101.0
 31
0.0
  0
LINE
  8
0
  6
LTYPE3
 62
     2
 10
127.4
 20
93.1
 30
0.0
 11
126.6
 21
93.9
 31
0.0
  0
LINE
  8
0
  6
LTYPE3
 62
     2
 10
127.4
 20
93.1
 30
0.0
 11
126.6
 21
92.3
 31
0.0
  0
LINE
  8
0
  6
LTYPE3
 62
     2
 10
126.6
 20
92.0
 30
0.0
 11
128.25
 21
91.047372056
 31
0.0
  0
LINE
  8
0
  6
LTYPE3
 62
     2
 10
126.6
 20
87.0
 30
0.0
 11
128.25
 21
87.952627944
 31
0.0
  0
LINE
  8
0
  6
LTYPE3
 62
     2
 10
128.25
 20
91.047372056
 30
0.0
 11
128.25
 21
87.952627944
 31
0.0
  0
LINE
  8
0
  6
LTYPE3
 62
     2
 10
134.6
 20
93.1
 30
0.0
 11
135.4
 21
93.9
 31
0.0
  0
LINE
  8
0
  6
LTYPE3
 62
     2
 10
134.6
 20
93.1
 30
0.0
 11
135.4
 21
92.3
 31
0.0
  0
LINE
  8
0
  6
LTYPE3
 62
     2
 10
135.4
 20
92.0
 30
0.0
 11
133.75
 21
91.047372056
 31
0.0
  0
LINE
  8
0
  6
LTYPE3
 62
     2
 10
135.4
 20
87.0
 30
0.0
 11
133.75
 21
87.952627944
 31
0.0
  0
LINE
  8
0
  6
LTYPE3
 62
     2
 10
133.75
 20
91.047372056
 30
0.0
 11
133.75
 21
87.952627944
 31
0.0
  0
LINE
  8
0
  6
LTYPE1
 62
     2
 10
153.0
 20
100.0
 30
0.0
 11
153.0
 21
92.0
 31
0.0
  0
LINE
  8
0
  6
LTYPE2
 62
     2
 10
153.0
 20
100.0
 30
0.0
 11
153.0
 21
92.0
 31
0.0
  0
LINE
  8
0
  6
LTYPE3
 62
     2
 10
147.1
 20
87.0
 30
0.0
 11
158.9
 21
87.0
 31
0.0
  0
ARC
  8
0
  6
LTYPE3
 62
     2
 10
151.6
 20
100.0
 30
0.0
 40
4.5
 50
90.0
 51
180.0
  0
LINE
  8
0
  6
LTYPE3
 62
     2
 10
147.1
 20
100.0
 30
0.0
 11
147.1
 21
87.0
 31
0.0
  0
ARC
  8
0
  6
LTYPE3
 62
     2
 10
154.4
 20
100.0
 30
0.0
 40
4.5
 50
0.0
 51
90.0
  0
LINE
  8
0
  6
LTYPE3
 62
     2
 10
158.9
 20
87.0
 30
0.0
 11
158.9
 21
100.0
 31
0.0
  0
LINE
  8
0
  6
LTYPE3
 62
     2
 10
154.4
 20
104.5
 30
0.0
 11
151.6
 21
104.5
 31
0.0
  0
ARC
  8
0
  6
LTYPE3
 62
     2
 10
151.6
 20
98.0
 30
0.0
 40
3.0
 50
90.0
 51
180.0
  0
LINE
  8
0
  6
LTYPE3
 62
     2
 10
148.6
 20
98.0
 30
0.0
 11
148.6
 21
87.0
 31
0.0
  0
ARC
  8
0
  6
LTYPE3
 62
     2
 10
154.4
 20
98.0
 30
0.0
 40
3.0
 50
0.0
 51
90.0
  0
LINE
  8
0
  6
LTYPE3
 62
     2
 10
157.4
 20
98.0
 30
0.0
 11
157.4
 21
87.0
 31
0.0
  0
LINE
  8
0
  6
LTYPE3
 62
     2
 10
151.6
 20
101.0
 30
0.0
 11
154.4
 21
101.0
 31
0.0
  0
LINE
  8
0
  6
LTYPE3
 62
     2
 10
149.4
 20
93.1
 30
0.0
 11
148.6
 21
93.9
 31
0.0
  0
LINE
  8
0
  6
LTYPE3
 62
     2
 10
149.4
 20
93.1
 30
0.0
 11
148.6
 21
92.3
 31
0.0
  0
LINE
  8
0
  6
LTYPE3
 62
     2
 10
148.6
 20
92.0
 30
0.0
 11
150.25
 21
91.047372056
 31
0.0
  0
LINE
  8
0
  6
LTYPE3
 62
     2
 10
148.6
 20
87.0
 30
0.0
 11
150.25
 21
87.952627944
 31
0.0
  0
LINE
  8
0
  6
LTYPE3
 62
     2
 10
150.25
 20
91.047372056
 30
0.0
 11
150.25
 21
87.952627944
 31
0.0
  0
LINE
  8
0
  6
LTYPE3
 62
     2
 10
156.6
 20
93.1
 30
0.0
 11
157.4
 21
93.9
 31
0.0
  0
LINE
  8
0
  6
LTYPE3
 62
     2
 10
156.6
 20
93.1
 30
0.0
 11
157.4
 21
92.3
 31
0.0
  0
LINE
  8
0
  6
LTYPE3
 62
     2
 10
157.4
 20
92.0
 30
0.0
 11
155.75
 21
91.047372056
 31
0.0
  0
LINE
  8
0
  6
LTYPE3
 62
     2
 10
157.4
 20
87.0
 30
0.0
 11
155.75
 21
87.952627944
 31
0.0
  0
LINE
  8
0
  6
LTYPE3
 62
     2
 10
155.75
 20
91.047372056
 30
0.0
 11
155.75
 21
87.952627944
 31
0.0
  0
LINE
  8
0
  6
CONTINUOUS
 62
     2
 10
51.0
 20
40.0
 30
0.0
 11
46.0
 21
40.0
 31
0.0
  0
LINE
  8
0
  6
CONTINUOUS
 62
     2
 10
48.0
 20
40.0
 30
0.0
 11
48.647047613
 21
42.414814566
 31
0.0
  0
LINE
  8
0
  6
CONTINUOUS
 62
     2
 10
48.0
 20
40.0
 30
0.0
 11
47.352952387
 21
42.414814566
 31
0.0
  0
LINE
  8
0
  6
CONTINUOUS
 62
     2
 10
48.0
 20
40.0
 30
0.0
 11
48.0
 21
104.5
 31
0.0
  0
LINE
  8
0
  6
CONTINUOUS
 62
     2
 10
48.0
 20
104.5
 30
0.0
 11
47.352952387
 21
102.085185434
 31
0.0
  0
LINE
  8
0
  6
CONTINUOUS
 62
     2
 10
48.0
 20
104.5
 30
0.0
 11
48.647047613
 21
102.085185434
 31
0.0
  0
LINE
  8
0
  6
CONTINUOUS
 62
     2
 10
84.6
 20
104.5
 30
0.0
 11
46.0
 21
104.5
 31
0.0
  0
TEXT
  8
0
  6
CONTINUOUS
 62
     2
 10
47.0
 20
68.2
 30
0.3
 40
3.0
  1
６４．５
 50
90.0
 41
0.6
 51
0.0
  7
KANJI2
  0
LINE
  8
0
  6
CONTINUOUS
 62
     2
 10
156.0
 20
116.3
 30
0.0
 11
156.647047613
 21
113.885185434
 31
0.0
  0
LINE
  8
0
  6
CONTINUOUS
 62
     2
 10
156.0
 20
116.3
 30
0.0
 11
157.767766953
 21
114.532233047
 31
0.0
  0
LINE
  8
0
  6
CONTINUOUS
 62
     2
 10
156.0
 20
116.3
 30
0.0
 11
162.5
 21
105.041669751
 31
0.0
  0
LINE
  8
0
  6
CONTINUOUS
 62
     2
 10
162.5
 20
105.041669751
 30
0.0
 11
182.5
 21
105.041669751
 31
0.0
  0
TEXT
  8
0
  6
CONTINUOUS
 62
     2
 10
163.5
 20
106.041669751
 30
0.3
 40
3.0
  1
端子キャップ
 50
0.0
 41
0.9
 51
0.0
  7
KANJI0
  0
TEXT
  8
0
  6
CONTINUOUS
 62
     2
 10
165.547005384
 20
121.0
 30
0.3
 40
3.0
  1
４－Ｍ４ネジ
 50
0.0
 41
0.9
 51
0.0
  7
KANJI0
  0
LINE
  8
0
  6
CONTINUOUS
 62
     2
 10
164.547005384
 20
120.0
 30
0.0
 11
183.7
 21
120.0
 31
0.0
  0
LINE
  8
0
  6
CONTINUOUS
 62
     2
 10
179.660254038
 20
125.0
 30
0.0
 11
199.5
 21
125.0
 31
0.0
  0
TEXT
  8
0
  6
CONTINUOUS
 62
     3
 10
235.0
 20
17.0
 30
0.6
 40
6.0
  1
ＭＳ－１２０９９
 50
0.0
 41
0.9
 51
0.0
  7
KANJI4
  0
TEXT
  8
0
  6
CONTINUOUS
 62
     2
 10
236.8
 20
34.6
 30
0.3
 40
3.0
  1
端子キャップ付
 50
0.0
 41
0.9
 51
0.0
  7
KANJI0
  0
TEXT
  8
0
  6
CONTINUOUS
 62
     2
 10
236.8
 20
30.1
 30
0.4
 40
4.0
  1
直列抵抗器　外形図
 50
0.0
 41
0.9
 51
0.0
  7
KANJI1
  0
TEXT
  8
0
  6
CONTINUOUS
 62
     2
 10
237.3
 20
40.8
 30
0.4
 40
4.0
  1
Ｍ－２Ｂ（４本端子）
 50
0.0
 41
0.9
 51
0.0
  7
KANJI1
  0
ENDSEC
  0
EOF
