  0
SECTION
  2
HEADER
  9
$ACADVER
  1
AC1009
  9
$DWGCODEPAGE
  3
dos932
  9
$EXTMIN
 10
0.0
 20
0.0
 30
0.0
  9
$EXTMAX
 10
297.0
 20
210.0
 30
0.0
  9
$LIMMIN
 10
0.0
 20
0.0
  9
$LIMMAX
 10
297.0
 20
210.0
  9
$LTSCALE
 40
1.0
  9
$PDMODE
 70
     0
  0
ENDSEC
  0
SECTION
  2
TABLES
  0
TABLE
  2
VPORT
 70
     1
  0
VPORT
  2
*ACTIVE
 70
     0
 10
0.0
 20
0.0
 11
1.0
 21
1.0
 12
148.5
 22
105.0
 13
0.0
 23
0.0
 14
10.0
 24
10.0
 15
10.0
 25
10.0
 16
0.0
 26
0.0
 36
1.0
 17
0.0
 27
0.0
 37
0.0
 40
297.0
 41
1.414285714
 42
50.0
 43
0.0
 44
0.0
 50
0.0
 51
0.0
 71
     0
 72
  1000
 73
     1
 74
     3
 75
     0
 76
     0
 77
     0
 78
     0
  0
ENDTAB
  0
TABLE
  2
LTYPE
 70
     4
  0
LTYPE
  2
LTYPE0
 70
    64
  3
CENTER
 72
    65
 73
     4
 40
8.0
 49
5.6
 49
-0.8
 49
0.8
 49
-0.8
  0
LTYPE
  2
CONTINUOUS
 70
    64
  3
Solid line
 72
    65
 73
     0
 40
0.0
  0
LTYPE
  2
LTYPE2
 70
    64
  3
HIDDEN
 72
    65
 73
     2
 40
2.0
 49
1.2
 49
-0.8
  0
LTYPE
  2
LTYPE3
 70
    64
  3
CENTER
 72
    65
 73
     4
 40
15.0
 49
10.5
 49
-1.5
 49
1.5
 49
-1.5
  0
ENDTAB
  0
TABLE
  2
LAYER
 70
   128
  0
LAYER
  2
0
 70
     0
 62
     7
  6
CONTINUOUS
  0
LAYER
  2
2
 70
     0
 62
     7
  6
CONTINUOUS
  0
LAYER
  2
3
 70
     0
 62
     7
  6
CONTINUOUS
  0
LAYER
  2
4
 70
     0
 62
     7
  6
CONTINUOUS
  0
LAYER
  2
5
 70
     0
 62
     7
  6
CONTINUOUS
  0
LAYER
  2
6
 70
     0
 62
     7
  6
CONTINUOUS
  0
LAYER
  2
7
 70
     0
 62
     7
  6
CONTINUOUS
  0
LAYER
  2
8
 70
     0
 62
     7
  6
CONTINUOUS
  0
LAYER
  2
9
 70
     0
 62
     7
  6
CONTINUOUS
  0
LAYER
  2
10
 70
     0
 62
     7
  6
CONTINUOUS
  0
LAYER
  2
11
 70
     0
 62
     7
  6
CONTINUOUS
  0
LAYER
  2
12
 70
     0
 62
     7
  6
CONTINUOUS
  0
LAYER
  2
13
 70
     0
 62
     7
  6
CONTINUOUS
  0
LAYER
  2
14
 70
     0
 62
     7
  6
CONTINUOUS
  0
LAYER
  2
15
 70
     0
 62
     7
  6
CONTINUOUS
  0
LAYER
  2
16
 70
     0
 62
     7
  6
CONTINUOUS
  0
LAYER
  2
17
 70
     0
 62
     7
  6
CONTINUOUS
  0
LAYER
  2
18
 70
     0
 62
     7
  6
CONTINUOUS
  0
LAYER
  2
19
 70
     0
 62
     7
  6
CONTINUOUS
  0
LAYER
  2
20
 70
     0
 62
     7
  6
CONTINUOUS
  0
LAYER
  2
21
 70
     0
 62
     7
  6
CONTINUOUS
  0
LAYER
  2
22
 70
     0
 62
     7
  6
CONTINUOUS
  0
LAYER
  2
23
 70
     0
 62
     7
  6
CONTINUOUS
  0
LAYER
  2
24
 70
     0
 62
     7
  6
CONTINUOUS
  0
LAYER
  2
25
 70
     0
 62
     7
  6
CONTINUOUS
  0
LAYER
  2
26
 70
     0
 62
     7
  6
CONTINUOUS
  0
LAYER
  2
27
 70
     0
 62
     7
  6
CONTINUOUS
  0
LAYER
  2
28
 70
     0
 62
     7
  6
CONTINUOUS
  0
LAYER
  2
29
 70
     0
 62
     7
  6
CONTINUOUS
  0
LAYER
  2
30
 70
     0
 62
     7
  6
CONTINUOUS
  0
LAYER
  2
31
 70
     0
 62
     7
  6
CONTINUOUS
  0
LAYER
  2
32
 70
     0
 62
     7
  6
CONTINUOUS
  0
LAYER
  2
33
 70
     0
 62
     7
  6
CONTINUOUS
  0
LAYER
  2
34
 70
     0
 62
     7
  6
CONTINUOUS
  0
LAYER
  2
35
 70
     0
 62
     7
  6
CONTINUOUS
  0
LAYER
  2
36
 70
     0
 62
     7
  6
CONTINUOUS
  0
LAYER
  2
37
 70
     0
 62
     7
  6
CONTINUOUS
  0
LAYER
  2
38
 70
     0
 62
     7
  6
CONTINUOUS
  0
LAYER
  2
39
 70
     0
 62
     7
  6
CONTINUOUS
  0
LAYER
  2
40
 70
     0
 62
     7
  6
CONTINUOUS
  0
LAYER
  2
41
 70
     0
 62
     7
  6
CONTINUOUS
  0
LAYER
  2
42
 70
     0
 62
     7
  6
CONTINUOUS
  0
LAYER
  2
43
 70
     0
 62
     7
  6
CONTINUOUS
  0
LAYER
  2
44
 70
     0
 62
     7
  6
CONTINUOUS
  0
LAYER
  2
45
 70
     0
 62
     7
  6
CONTINUOUS
  0
LAYER
  2
46
 70
     0
 62
     7
  6
CONTINUOUS
  0
LAYER
  2
47
 70
     0
 62
     7
  6
CONTINUOUS
  0
LAYER
  2
48
 70
     0
 62
     7
  6
CONTINUOUS
  0
LAYER
  2
49
 70
     0
 62
     7
  6
CONTINUOUS
  0
LAYER
  2
50
 70
     0
 62
     7
  6
CONTINUOUS
  0
LAYER
  2
51
 70
     0
 62
     7
  6
CONTINUOUS
  0
LAYER
  2
52
 70
     0
 62
     7
  6
CONTINUOUS
  0
LAYER
  2
53
 70
     0
 62
     7
  6
CONTINUOUS
  0
LAYER
  2
54
 70
     0
 62
     7
  6
CONTINUOUS
  0
LAYER
  2
55
 70
     0
 62
     7
  6
CONTINUOUS
  0
LAYER
  2
56
 70
     0
 62
     7
  6
CONTINUOUS
  0
LAYER
  2
57
 70
     0
 62
     7
  6
CONTINUOUS
  0
LAYER
  2
58
 70
     0
 62
     7
  6
CONTINUOUS
  0
LAYER
  2
59
 70
     0
 62
     7
  6
CONTINUOUS
  0
LAYER
  2
60
 70
     0
 62
     7
  6
CONTINUOUS
  0
LAYER
  2
61
 70
     0
 62
     7
  6
CONTINUOUS
  0
LAYER
  2
62
 70
     0
 62
     7
  6
CONTINUOUS
  0
LAYER
  2
63
 70
     0
 62
     7
  6
CONTINUOUS
  0
LAYER
  2
64
 70
     0
 62
     7
  6
CONTINUOUS
  0
LAYER
  2
65
 70
     0
 62
     7
  6
CONTINUOUS
  0
LAYER
  2
66
 70
     0
 62
     7
  6
CONTINUOUS
  0
LAYER
  2
67
 70
     0
 62
     7
  6
CONTINUOUS
  0
LAYER
  2
68
 70
     0
 62
     7
  6
CONTINUOUS
  0
LAYER
  2
69
 70
     0
 62
     7
  6
CONTINUOUS
  0
LAYER
  2
70
 70
     0
 62
     7
  6
CONTINUOUS
  0
LAYER
  2
71
 70
     0
 62
     7
  6
CONTINUOUS
  0
LAYER
  2
72
 70
     0
 62
     7
  6
CONTINUOUS
  0
LAYER
  2
73
 70
     0
 62
     7
  6
CONTINUOUS
  0
LAYER
  2
74
 70
     0
 62
     7
  6
CONTINUOUS
  0
LAYER
  2
75
 70
     0
 62
     7
  6
CONTINUOUS
  0
LAYER
  2
76
 70
     0
 62
     7
  6
CONTINUOUS
  0
LAYER
  2
77
 70
     0
 62
     7
  6
CONTINUOUS
  0
LAYER
  2
78
 70
     0
 62
     7
  6
CONTINUOUS
  0
LAYER
  2
79
 70
     0
 62
     7
  6
CONTINUOUS
  0
LAYER
  2
80
 70
     0
 62
     7
  6
CONTINUOUS
  0
LAYER
  2
81
 70
     0
 62
     7
  6
CONTINUOUS
  0
LAYER
  2
82
 70
     0
 62
     7
  6
CONTINUOUS
  0
LAYER
  2
83
 70
     0
 62
     7
  6
CONTINUOUS
  0
LAYER
  2
84
 70
     0
 62
     7
  6
CONTINUOUS
  0
LAYER
  2
85
 70
     0
 62
     7
  6
CONTINUOUS
  0
LAYER
  2
86
 70
     0
 62
     7
  6
CONTINUOUS
  0
LAYER
  2
87
 70
     0
 62
     7
  6
CONTINUOUS
  0
LAYER
  2
88
 70
     0
 62
     7
  6
CONTINUOUS
  0
LAYER
  2
89
 70
     0
 62
     7
  6
CONTINUOUS
  0
LAYER
  2
90
 70
     0
 62
     7
  6
CONTINUOUS
  0
LAYER
  2
91
 70
     0
 62
     7
  6
CONTINUOUS
  0
LAYER
  2
92
 70
     0
 62
     7
  6
CONTINUOUS
  0
LAYER
  2
93
 70
     0
 62
     7
  6
CONTINUOUS
  0
LAYER
  2
94
 70
     0
 62
     7
  6
CONTINUOUS
  0
LAYER
  2
95
 70
     0
 62
     7
  6
CONTINUOUS
  0
LAYER
  2
96
 70
     0
 62
     7
  6
CONTINUOUS
  0
LAYER
  2
97
 70
     0
 62
     7
  6
CONTINUOUS
  0
LAYER
  2
98
 70
     0
 62
     7
  6
CONTINUOUS
  0
LAYER
  2
99
 70
     0
 62
     7
  6
CONTINUOUS
  0
LAYER
  2
100
 70
     0
 62
     7
  6
CONTINUOUS
  0
LAYER
  2
101
 70
     0
 62
     7
  6
CONTINUOUS
  0
LAYER
  2
102
 70
     0
 62
     7
  6
CONTINUOUS
  0
LAYER
  2
103
 70
     0
 62
     7
  6
CONTINUOUS
  0
LAYER
  2
104
 70
     0
 62
     7
  6
CONTINUOUS
  0
LAYER
  2
105
 70
     0
 62
     7
  6
CONTINUOUS
  0
LAYER
  2
106
 70
     0
 62
     7
  6
CONTINUOUS
  0
LAYER
  2
107
 70
     0
 62
     7
  6
CONTINUOUS
  0
LAYER
  2
108
 70
     0
 62
     7
  6
CONTINUOUS
  0
LAYER
  2
109
 70
     0
 62
     7
  6
CONTINUOUS
  0
LAYER
  2
110
 70
     0
 62
     7
  6
CONTINUOUS
  0
LAYER
  2
111
 70
     0
 62
     7
  6
CONTINUOUS
  0
LAYER
  2
112
 70
     0
 62
     7
  6
CONTINUOUS
  0
LAYER
  2
113
 70
     0
 62
     7
  6
CONTINUOUS
  0
LAYER
  2
114
 70
     0
 62
     7
  6
CONTINUOUS
  0
LAYER
  2
115
 70
     0
 62
     7
  6
CONTINUOUS
  0
LAYER
  2
116
 70
     0
 62
     7
  6
CONTINUOUS
  0
LAYER
  2
117
 70
     0
 62
     7
  6
CONTINUOUS
  0
LAYER
  2
118
 70
     0
 62
     7
  6
CONTINUOUS
  0
LAYER
  2
119
 70
     0
 62
     7
  6
CONTINUOUS
  0
LAYER
  2
120
 70
     0
 62
     7
  6
CONTINUOUS
  0
LAYER
  2
121
 70
     0
 62
     7
  6
CONTINUOUS
  0
LAYER
  2
122
 70
     0
 62
     7
  6
CONTINUOUS
  0
LAYER
  2
123
 70
     0
 62
     7
  6
CONTINUOUS
  0
LAYER
  2
124
 70
     0
 62
     7
  6
CONTINUOUS
  0
LAYER
  2
125
 70
     0
 62
     7
  6
CONTINUOUS
  0
LAYER
  2
126
 70
     0
 62
     7
  6
CONTINUOUS
  0
LAYER
  2
127
 70
     0
 62
     7
  6
CONTINUOUS
  0
LAYER
  2
128
 70
     0
 62
     7
  6
CONTINUOUS
  0
ENDTAB
  0
TABLE
  2
STYLE
 70
    10
  0
STYLE
  2
STANDARD
 70
     0
 40
0.0
 41
1.0
 50
0.0
 71
     0
 42
0.2
  3
txt.shx
  4
extfont.shx
  0
STYLE
  2
KANJI0
 70
     0
 40
3.0
 41
0.6
 50
0.0
 71
     0
 42
3.0
  3
txt.shx
  4
extfont.shx
  0
STYLE
  2
KANJI1
 70
     0
 40
1.8
 41
0.6
 50
0.0
 71
     0
 42
1.8
  3
txt.shx
  4
extfont.shx
  0
STYLE
  2
KANJI2
 70
     0
 40
3.0
 41
0.9
 50
0.0
 71
     0
 42
3.0
  3
txt.shx
  4
extfont.shx
  0
STYLE
  2
KANJI3
 70
     0
 40
3.0
 41
0.6
 50
0.0
 71
     0
 42
3.0
  3
txt.shx
  4
extfont.shx
  0
STYLE
  2
KANJI4
 70
     0
 40
6.0
 41
0.9
 50
0.0
 71
     0
 42
6.0
  3
txt.shx
  4
extfont.shx
  0
STYLE
  2
KANJI5
 70
     0
 40
2.0
 41
0.7
 50
0.0
 71
     0
 42
2.0
  3
txt.shx
  4
extfont.shx
  0
STYLE
  2
KANJI6
 70
     0
 40
4.0
 41
0.9
 50
0.0
 71
     0
 42
4.0
  3
txt.shx
  4
extfont.shx
  0
STYLE
  2
KANJI7
 70
     0
 40
3.0
 41
0.6
 50
0.0
 71
     0
 42
3.0
  3
txt.shx
  4
extfont.shx
  0
STYLE
  2
KANJI8
 70
     0
 40
3.0
 41
0.9
 50
0.0
 71
     0
 42
3.0
  3
txt.shx
  4
extfont.shx
  0
ENDTAB
  0
TABLE
  2
VIEW
 70
     0
  0
ENDTAB
  0
ENDSEC
  0
SECTION
  2
BLOCKS
  0
ENDSEC
  0
SECTION
  2
ENTITIES
  0
POINT
  8
0
  6
LTYPE0
 62
     2
 10
174.0
 20
93.0
 30
0.0
  0
POINT
  8
0
  6
LTYPE0
 62
     2
 10
174.0
 20
153.0
 30
0.0
  0
POINT
  8
0
  6
LTYPE0
 62
     2
 10
204.0
 20
123.0
 30
0.0
  0
POINT
  8
0
  6
LTYPE0
 62
     2
 10
144.0
 20
123.0
 30
0.0
  0
CIRCLE
  8
0
  6
CONTINUOUS
 62
     1
 10
174.0
 20
123.0
 30
0.0
 40
13.5
  0
CIRCLE
  8
0
  6
CONTINUOUS
 62
     2
 10
174.0
 20
53.0
 30
0.0
 40
14.0
  0
LINE
  8
0
  6
CONTINUOUS
 62
     2
 10
156.0
 20
73.8
 30
0.0
 11
156.0
 21
77.8
 31
0.0
  0
LINE
  8
0
  6
CONTINUOUS
 62
     2
 10
156.0
 20
75.8
 30
0.0
 11
158.414814566
 21
75.152952387
 31
0.0
  0
LINE
  8
0
  6
CONTINUOUS
 62
     2
 10
156.0
 20
75.8
 30
0.0
 11
158.414814566
 21
76.447047613
 31
0.0
  0
LINE
  8
0
  6
CONTINUOUS
 62
     2
 10
156.0
 20
75.8
 30
0.0
 11
192.0
 21
75.8
 31
0.0
  0
LINE
  8
0
  6
CONTINUOUS
 62
     2
 10
192.0
 20
75.8
 30
0.0
 11
189.585185434
 21
76.447047613
 31
0.0
  0
LINE
  8
0
  6
CONTINUOUS
 62
     2
 10
192.0
 20
75.8
 30
0.0
 11
189.585185434
 21
75.152952387
 31
0.0
  0
LINE
  8
0
  6
CONTINUOUS
 62
     2
 10
192.0
 20
73.8
 30
0.0
 11
192.0
 21
77.8
 31
0.0
  0
TEXT
  8
0
  6
CONTINUOUS
 62
     2
 10
168.57
 20
76.8
 30
0.3
 40
3.0
  1
１８０
 50
0.0
 41
0.6
 51
0.0
  7
KANJI0
  0
TEXT
  8
0
  6
CONTINUOUS
 62
     2
 10
175.02
 20
76.8
 30
0.18
 40
1.8
  1
±０．８
 50
0.0
 41
0.6
 51
0.0
  7
KANJI1
  0
LINE
  8
0
  6
CONTINUOUS
 62
     2
 10
194.8
 20
71.0
 30
0.0
 11
199.8
 21
71.0
 31
0.0
  0
LINE
  8
0
  6
CONTINUOUS
 62
     2
 10
197.8
 20
71.0
 30
0.0
 11
197.152952387
 21
68.585185434
 31
0.0
  0
LINE
  8
0
  6
CONTINUOUS
 62
     2
 10
197.8
 20
71.0
 30
0.0
 11
198.447047613
 21
68.585185434
 31
0.0
  0
LINE
  8
0
  6
CONTINUOUS
 62
     2
 10
197.8
 20
71.0
 30
0.0
 11
197.8
 21
35.0
 31
0.0
  0
LINE
  8
0
  6
CONTINUOUS
 62
     2
 10
197.8
 20
35.0
 30
0.0
 11
198.447047613
 21
37.414814566
 31
0.0
  0
LINE
  8
0
  6
CONTINUOUS
 62
     2
 10
197.8
 20
35.0
 30
0.0
 11
197.152952387
 21
37.414814566
 31
0.0
  0
LINE
  8
0
  6
CONTINUOUS
 62
     2
 10
194.8
 20
35.0
 30
0.0
 11
199.8
 21
35.0
 31
0.0
  0
TEXT
  8
0
  6
CONTINUOUS
 62
     2
 10
196.8
 20
47.57
 30
0.3
 40
3.0
  1
１８０
 50
90.0
 41
0.6
 51
0.0
  7
KANJI0
  0
TEXT
  8
0
  6
CONTINUOUS
 62
     2
 10
196.8
 20
54.02
 30
0.18
 40
1.8
  1
±０．８
 50
90.0
 41
0.6
 51
0.0
  7
KANJI1
  0
LINE
  8
0
  6
CONTINUOUS
 62
     2
 10
163.134403998
 20
44.171703249
 30
0.0
 11
165.416598843
 21
45.192284794
 31
0.0
  0
LINE
  8
0
  6
CONTINUOUS
 62
     2
 10
163.134403998
 20
44.171703249
 30
0.0
 11
164.600551938
 21
46.196650216
 31
0.0
  0
LINE
  8
0
  6
CONTINUOUS
 62
     2
 10
163.134403998
 20
44.171703249
 30
0.0
 11
184.865596002
 21
61.828296751
 31
0.0
  0
LINE
  8
0
  6
CONTINUOUS
 62
     2
 10
184.865596002
 20
61.828296751
 30
0.0
 11
182.583401157
 21
60.807715206
 31
0.0
  0
LINE
  8
0
  6
CONTINUOUS
 62
     2
 10
184.865596002
 20
61.828296751
 30
0.0
 11
183.399448062
 21
59.803349784
 31
0.0
  0
TEXT
  8
0
  6
CONTINUOUS
 62
     2
 10
170.169407375
 20
51.176114
 30
0.3
 40
3.0
  1
φ１４０
 50
39.093858886
 41
0.6
 51
0.0
  7
KANJI0
  0
TEXT
  8
0
  6
CONTINUOUS
 62
     2
 10
176.805182076
 20
56.567680945
 30
0.18
 40
1.8
  1
±１
 50
39.093858886
 41
0.6
 51
0.0
  7
KANJI1
  0
LINE
  8
0
  6
LTYPE0
 62
     2
 10
156.0
 20
68.0
 30
0.0
 11
156.0
 21
74.0
 31
0.0
  0
LINE
  8
0
  6
LTYPE0
 62
     2
 10
153.0
 20
71.0
 30
0.0
 11
159.0
 21
71.0
 31
0.0
  0
LINE
  8
0
  6
LTYPE0
 62
     2
 10
192.0
 20
68.0
 30
0.0
 11
192.0
 21
74.0
 31
0.0
  0
LINE
  8
0
  6
LTYPE0
 62
     2
 10
189.0
 20
71.0
 30
0.0
 11
195.0
 21
71.0
 31
0.0
  0
LINE
  8
0
  6
LTYPE0
 62
     2
 10
192.0
 20
32.0
 30
0.0
 11
192.0
 21
38.0
 31
0.0
  0
LINE
  8
0
  6
LTYPE0
 62
     2
 10
189.0
 20
35.0
 30
0.0
 11
195.0
 21
35.0
 31
0.0
  0
LINE
  8
0
  6
LTYPE0
 62
     2
 10
156.0
 20
32.0
 30
0.0
 11
156.0
 21
38.0
 31
0.0
  0
LINE
  8
0
  6
LTYPE0
 62
     2
 10
153.0
 20
35.0
 30
0.0
 11
159.0
 21
35.0
 31
0.0
  0
LINE
  8
0
  6
LTYPE0
 62
     2
 10
188.0
 20
141.0
 30
0.0
 11
196.0
 21
141.0
 31
0.0
  0
LINE
  8
0
  6
LTYPE0
 62
     2
 10
192.0
 20
145.0
 30
0.0
 11
192.0
 21
137.0
 31
0.0
  0
LINE
  8
0
  6
CONTINUOUS
 62
     2
 10
174.0
 20
154.0
 30
0.0
 11
176.414814566
 21
153.352952387
 31
0.0
  0
LINE
  8
0
  6
CONTINUOUS
 62
     2
 10
174.0
 20
154.0
 30
0.0
 11
176.414814566
 21
154.647047613
 31
0.0
  0
LINE
  8
0
  6
CONTINUOUS
 62
     2
 10
174.0
 20
154.0
 30
0.0
 11
192.0
 21
154.0
 31
0.0
  0
LINE
  8
0
  6
CONTINUOUS
 62
     2
 10
192.0
 20
154.0
 30
0.0
 11
189.585185434
 21
154.647047613
 31
0.0
  0
LINE
  8
0
  6
CONTINUOUS
 62
     2
 10
192.0
 20
154.0
 30
0.0
 11
189.585185434
 21
153.352952387
 31
0.0
  0
LINE
  8
0
  6
CONTINUOUS
 62
     2
 10
192.0
 20
145.0
 30
0.0
 11
192.0
 21
156.0
 31
0.0
  0
TEXT
  8
0
  6
CONTINUOUS
 62
     2
 10
178.62
 20
155.0
 30
0.3
 40
3.0
  1
９０
 50
0.0
 41
0.6
 51
0.0
  7
KANJI0
  0
TEXT
  8
0
  6
CONTINUOUS
 62
     2
 10
182.97
 20
155.0
 30
0.18
 40
1.8
  1
±０．４
 50
0.0
 41
0.6
 51
0.0
  7
KANJI1
  0
LINE
  8
0
  6
CONTINUOUS
 62
     2
 10
174.0
 20
154.0
 30
0.0
 11
174.0
 21
156.0
 31
0.0
  0
LINE
  8
0
  6
CONTINUOUS
 62
     2
 10
174.0
 20
154.0
 30
0.0
 11
171.585185434
 21
154.647047613
 31
0.0
  0
LINE
  8
0
  6
CONTINUOUS
 62
     2
 10
174.0
 20
154.0
 30
0.0
 11
171.585185434
 21
153.352952387
 31
0.0
  0
LINE
  8
0
  6
CONTINUOUS
 62
     2
 10
174.0
 20
154.0
 30
0.0
 11
156.0
 21
154.0
 31
0.0
  0
LINE
  8
0
  6
CONTINUOUS
 62
     2
 10
156.0
 20
154.0
 30
0.0
 11
158.414814566
 21
153.352952387
 31
0.0
  0
LINE
  8
0
  6
CONTINUOUS
 62
     2
 10
156.0
 20
154.0
 30
0.0
 11
158.414814566
 21
154.647047613
 31
0.0
  0
LINE
  8
0
  6
CONTINUOUS
 62
     2
 10
156.0
 20
145.0
 30
0.0
 11
156.0
 21
156.0
 31
0.0
  0
TEXT
  8
0
  6
CONTINUOUS
 62
     2
 10
160.62
 20
155.0
 30
0.3
 40
3.0
  1
９０
 50
0.0
 41
0.6
 51
0.0
  7
KANJI0
  0
TEXT
  8
0
  6
CONTINUOUS
 62
     2
 10
164.97
 20
155.0
 30
0.18
 40
1.8
  1
±０．４
 50
0.0
 41
0.6
 51
0.0
  7
KANJI1
  0
LINE
  8
0
  6
CONTINUOUS
 62
     2
 10
196.0
 20
141.0
 30
0.0
 11
211.0
 21
141.0
 31
0.0
  0
LINE
  8
0
  6
CONTINUOUS
 62
     2
 10
209.0
 20
141.0
 30
0.0
 11
208.352952387
 21
138.585185434
 31
0.0
  0
LINE
  8
0
  6
CONTINUOUS
 62
     2
 10
209.0
 20
141.0
 30
0.0
 11
209.647047613
 21
138.585185434
 31
0.0
  0
LINE
  8
0
  6
CONTINUOUS
 62
     2
 10
209.0
 20
141.0
 30
0.0
 11
209.0
 21
123.0
 31
0.0
  0
LINE
  8
0
  6
CONTINUOUS
 62
     2
 10
209.0
 20
123.0
 30
0.0
 11
209.647047613
 21
125.414814566
 31
0.0
  0
LINE
  8
0
  6
CONTINUOUS
 62
     2
 10
209.0
 20
123.0
 30
0.0
 11
208.352952387
 21
125.414814566
 31
0.0
  0
TEXT
  8
0
  6
CONTINUOUS
 62
     2
 10
208.0
 20
127.62
 30
0.3
 40
3.0
  1
９０
 50
90.0
 41
0.6
 51
0.0
  7
KANJI0
  0
TEXT
  8
0
  6
CONTINUOUS
 62
     2
 10
208.0
 20
131.97
 30
0.18
 40
1.8
  1
±０．４
 50
90.0
 41
0.6
 51
0.0
  7
KANJI1
  0
LINE
  8
0
  6
LTYPE0
 62
     2
 10
174.0
 20
34.0
 30
0.0
 11
174.0
 21
72.0
 31
0.0
  0
LINE
  8
0
  6
LTYPE0
 62
     2
 10
193.0
 20
53.0
 30
0.0
 11
155.0
 21
53.0
 31
0.0
  0
LINE
  8
0
  6
CONTINUOUS
 62
     2
 10
149.0
 20
145.0
 30
0.0
 11
149.0
 21
163.0
 31
0.0
  0
LINE
  8
0
  6
CONTINUOUS
 62
     2
 10
149.0
 20
161.0
 30
0.0
 11
151.414814566
 21
160.352952387
 31
0.0
  0
LINE
  8
0
  6
CONTINUOUS
 62
     2
 10
149.0
 20
161.0
 30
0.0
 11
151.414814566
 21
161.647047613
 31
0.0
  0
LINE
  8
0
  6
CONTINUOUS
 62
     2
 10
149.0
 20
161.0
 30
0.0
 11
199.0
 21
161.0
 31
0.0
  0
LINE
  8
0
  6
CONTINUOUS
 62
     2
 10
199.0
 20
161.0
 30
0.0
 11
196.585185434
 21
161.647047613
 31
0.0
  0
LINE
  8
0
  6
CONTINUOUS
 62
     2
 10
199.0
 20
161.0
 30
0.0
 11
196.585185434
 21
160.352952387
 31
0.0
  0
LINE
  8
0
  6
CONTINUOUS
 62
     2
 10
199.0
 20
145.0
 30
0.0
 11
199.0
 21
163.0
 31
0.0
  0
TEXT
  8
0
  6
CONTINUOUS
 62
     2
 10
171.0
 20
162.0
 30
0.3
 40
3.0
  1
２５０
 50
0.0
 41
0.6
 51
0.0
  7
KANJI0
  0
LINE
  8
0
  6
CONTINUOUS
 62
     2
 10
196.0
 20
148.0
 30
0.0
 11
219.0
 21
148.0
 31
0.0
  0
LINE
  8
0
  6
CONTINUOUS
 62
     2
 10
217.0
 20
148.0
 30
0.0
 11
216.352952387
 21
145.585185434
 31
0.0
  0
LINE
  8
0
  6
CONTINUOUS
 62
     2
 10
217.0
 20
148.0
 30
0.0
 11
217.647047613
 21
145.585185434
 31
0.0
  0
LINE
  8
0
  6
CONTINUOUS
 62
     2
 10
217.0
 20
148.0
 30
0.0
 11
217.0
 21
98.0
 31
0.0
  0
LINE
  8
0
  6
CONTINUOUS
 62
     2
 10
217.0
 20
98.0
 30
0.0
 11
217.647047613
 21
100.414814566
 31
0.0
  0
LINE
  8
0
  6
CONTINUOUS
 62
     2
 10
217.0
 20
98.0
 30
0.0
 11
216.352952387
 21
100.414814566
 31
0.0
  0
LINE
  8
0
  6
CONTINUOUS
 62
     2
 10
196.0
 20
98.0
 30
0.0
 11
219.0
 21
98.0
 31
0.0
  0
TEXT
  8
0
  6
CONTINUOUS
 62
     2
 10
216.0
 20
120.0
 30
0.3
 40
3.0
  1
２５０
 50
90.0
 41
0.6
 51
0.0
  7
KANJI0
  0
LINE
  8
0
  6
CONTINUOUS
 62
     2
 10
196.0
 20
105.0
 30
0.0
 11
211.0
 21
105.0
 31
0.0
  0
LINE
  8
0
  6
CONTINUOUS
 62
     2
 10
209.0
 20
105.0
 30
0.0
 11
208.352952387
 21
107.414814566
 31
0.0
  0
LINE
  8
0
  6
CONTINUOUS
 62
     2
 10
209.0
 20
105.0
 30
0.0
 11
209.647047613
 21
107.414814566
 31
0.0
  0
LINE
  8
0
  6
CONTINUOUS
 62
     2
 10
209.0
 20
105.0
 30
0.0
 11
209.0
 21
123.0
 31
0.0
  0
LINE
  8
0
  6
CONTINUOUS
 62
     2
 10
209.0
 20
123.0
 30
0.0
 11
209.647047613
 21
120.585185434
 31
0.0
  0
LINE
  8
0
  6
CONTINUOUS
 62
     2
 10
209.0
 20
123.0
 30
0.0
 11
208.352952387
 21
120.585185434
 31
0.0
  0
TEXT
  8
0
  6
CONTINUOUS
 62
     2
 10
208.0
 20
109.62
 30
0.3
 40
3.0
  1
９０
 50
90.0
 41
0.6
 51
0.0
  7
KANJI0
  0
TEXT
  8
0
  6
CONTINUOUS
 62
     2
 10
208.0
 20
113.97
 30
0.18
 40
1.8
  1
±０．４
 50
90.0
 41
0.6
 51
0.0
  7
KANJI1
  0
LINE
  8
0
  6
CONTINUOUS
 62
     1
 10
149.0
 20
143.0
 30
0.0
 11
149.0
 21
103.0
 31
0.0
  0
ARC
  8
0
  6
CONTINUOUS
 62
     1
 10
154.0
 20
103.0
 30
0.0
 40
5.0
 50
180.0
 51
270.0
  0
LINE
  8
0
  6
CONTINUOUS
 62
     1
 10
154.0
 20
98.0
 30
0.0
 11
194.0
 21
98.0
 31
0.0
  0
ARC
  8
0
  6
CONTINUOUS
 62
     1
 10
194.0
 20
103.0
 30
0.0
 40
5.0
 50
270.0
 51
0.0
  0
LINE
  8
0
  6
CONTINUOUS
 62
     1
 10
199.0
 20
103.0
 30
0.0
 11
199.0
 21
143.0
 31
0.0
  0
ARC
  8
0
  6
CONTINUOUS
 62
     1
 10
194.0
 20
143.0
 30
0.0
 40
5.0
 50
0.0
 51
90.0
  0
LINE
  8
0
  6
CONTINUOUS
 62
     1
 10
194.0
 20
148.0
 30
0.0
 11
154.0
 21
148.0
 31
0.0
  0
ARC
  8
0
  6
CONTINUOUS
 62
     1
 10
154.0
 20
143.0
 30
0.0
 40
5.0
 50
90.0
 51
180.0
  0
LINE
  8
0
  6
LTYPE2
 62
     2
 10
149.7
 20
143.000000811
 30
0.0
 11
149.7
 21
103.000000811
 31
0.0
  0
ARC
  8
0
  6
LTYPE2
 62
     2
 10
154.0
 20
103.0
 30
0.0
 40
4.3
 50
179.999989198
 51
270.000002091
  0
LINE
  8
0
  6
LTYPE2
 62
     2
 10
154.000000731
 20
98.7
 30
0.0
 11
194.000001319
 21
98.7
 31
0.0
  0
ARC
  8
0
  6
LTYPE2
 62
     2
 10
194.0
 20
103.0
 30
0.0
 40
4.3
 50
270.000002091
 51
0.000016941
  0
LINE
  8
0
  6
LTYPE2
 62
     2
 10
198.3
 20
103.000001271
 30
0.0
 11
198.3
 21
143.000001271
 31
0.0
  0
ARC
  8
0
  6
LTYPE2
 62
     2
 10
194.0
 20
143.0
 30
0.0
 40
4.3
 50
0.000016941
 51
90.0
  0
LINE
  8
0
  6
LTYPE2
 62
     2
 10
194.000001271
 20
147.3
 30
0.0
 11
154.000000811
 21
147.3
 31
0.0
  0
ARC
  8
0
  6
LTYPE2
 62
     2
 10
154.0
 20
143.0
 30
0.0
 40
4.3
 50
90.0
 51
179.999989198
  0
CIRCLE
  8
0
  6
CONTINUOUS
 62
     2
 10
156.0
 20
141.0
 30
0.0
 40
2.5
  0
LINE
  8
0
  6
CONTINUOUS
 62
     2
 10
157.29326428
 20
141.74666648
 30
0.0
 11
156.0
 21
142.49333296
 31
0.0
  0
LINE
  8
0
  6
CONTINUOUS
 62
     2
 10
156.0
 20
142.49333296
 30
0.0
 11
154.70673572
 21
141.74666648
 31
0.0
  0
LINE
  8
0
  6
CONTINUOUS
 62
     2
 10
154.70673572
 20
141.74666648
 30
0.0
 11
154.70673572
 21
140.25333352
 31
0.0
  0
LINE
  8
0
  6
CONTINUOUS
 62
     2
 10
154.70673572
 20
140.25333352
 30
0.0
 11
156.0
 21
139.50666704
 31
0.0
  0
LINE
  8
0
  6
CONTINUOUS
 62
     2
 10
156.0
 20
139.50666704
 30
0.0
 11
157.29326428
 21
140.25333352
 31
0.0
  0
LINE
  8
0
  6
CONTINUOUS
 62
     2
 10
157.29326428
 20
140.25333352
 30
0.0
 11
157.29326428
 21
141.74666648
 31
0.0
  0
CIRCLE
  8
0
  6
CONTINUOUS
 62
     2
 10
156.0
 20
141.0
 30
0.0
 40
0.7999998
  0
CIRCLE
  8
0
  6
CONTINUOUS
 62
     2
 10
156.0
 20
141.0
 30
0.0
 40
0.74666648
  0
CIRCLE
  8
0
  6
CONTINUOUS
 62
     2
 10
156.0
 20
141.0
 30
0.0
 40
1.5999996
  0
CIRCLE
  8
0
  6
CONTINUOUS
 62
     2
 10
156.0
 20
141.0
 30
0.0
 40
1.333333
  0
LINE
  8
0
  6
LTYPE3
 62
     2
 10
156.0
 20
144.5
 30
0.0
 11
156.0
 21
137.5
 31
0.0
  0
LINE
  8
0
  6
LTYPE3
 62
     2
 10
152.5
 20
141.0
 30
0.0
 11
159.5
 21
141.0
 31
0.0
  0
CIRCLE
  8
0
  6
CONTINUOUS
 62
     2
 10
192.0
 20
141.0
 30
0.0
 40
2.5
  0
LINE
  8
0
  6
CONTINUOUS
 62
     2
 10
190.70673572
 20
141.74666648
 30
0.0
 11
192.0
 21
142.49333296
 31
0.0
  0
LINE
  8
0
  6
CONTINUOUS
 62
     2
 10
192.0
 20
142.49333296
 30
0.0
 11
193.29326428
 21
141.74666648
 31
0.0
  0
LINE
  8
0
  6
CONTINUOUS
 62
     2
 10
193.29326428
 20
141.74666648
 30
0.0
 11
193.29326428
 21
140.25333352
 31
0.0
  0
LINE
  8
0
  6
CONTINUOUS
 62
     2
 10
193.29326428
 20
140.25333352
 30
0.0
 11
192.0
 21
139.50666704
 31
0.0
  0
LINE
  8
0
  6
CONTINUOUS
 62
     2
 10
192.0
 20
139.50666704
 30
0.0
 11
190.70673572
 21
140.25333352
 31
0.0
  0
LINE
  8
0
  6
CONTINUOUS
 62
     2
 10
190.70673572
 20
140.25333352
 30
0.0
 11
190.70673572
 21
141.74666648
 31
0.0
  0
CIRCLE
  8
0
  6
CONTINUOUS
 62
     2
 10
192.0
 20
141.0
 30
0.0
 40
0.7999998
  0
CIRCLE
  8
0
  6
CONTINUOUS
 62
     2
 10
192.0
 20
141.0
 30
0.0
 40
0.74666648
  0
CIRCLE
  8
0
  6
CONTINUOUS
 62
     2
 10
192.0
 20
141.0
 30
0.0
 40
1.5999996
  0
CIRCLE
  8
0
  6
CONTINUOUS
 62
     2
 10
192.0
 20
141.0
 30
0.0
 40
1.333333
  0
LINE
  8
0
  6
LTYPE3
 62
     2
 10
192.0
 20
144.5
 30
0.0
 11
192.0
 21
137.5
 31
0.0
  0
LINE
  8
0
  6
LTYPE3
 62
     2
 10
195.5
 20
141.0
 30
0.0
 11
188.5
 21
141.0
 31
0.0
  0
LINE
  8
0
  6
LTYPE0
 62
     2
 10
188.0
 20
105.0
 30
0.0
 11
196.0
 21
105.0
 31
0.0
  0
LINE
  8
0
  6
LTYPE0
 62
     2
 10
192.0
 20
101.0
 30
0.0
 11
192.0
 21
109.0
 31
0.0
  0
CIRCLE
  8
0
  6
CONTINUOUS
 62
     2
 10
156.0
 20
105.0
 30
0.0
 40
2.5
  0
LINE
  8
0
  6
CONTINUOUS
 62
     2
 10
157.29326428
 20
104.25333352
 30
0.0
 11
156.0
 21
103.50666704
 31
0.0
  0
LINE
  8
0
  6
CONTINUOUS
 62
     2
 10
156.0
 20
103.50666704
 30
0.0
 11
154.70673572
 21
104.25333352
 31
0.0
  0
LINE
  8
0
  6
CONTINUOUS
 62
     2
 10
154.70673572
 20
104.25333352
 30
0.0
 11
154.70673572
 21
105.74666648
 31
0.0
  0
LINE
  8
0
  6
CONTINUOUS
 62
     2
 10
154.70673572
 20
105.74666648
 30
0.0
 11
156.0
 21
106.49333296
 31
0.0
  0
LINE
  8
0
  6
CONTINUOUS
 62
     2
 10
156.0
 20
106.49333296
 30
0.0
 11
157.29326428
 21
105.74666648
 31
0.0
  0
LINE
  8
0
  6
CONTINUOUS
 62
     2
 10
157.29326428
 20
105.74666648
 30
0.0
 11
157.29326428
 21
104.25333352
 31
0.0
  0
CIRCLE
  8
0
  6
CONTINUOUS
 62
     2
 10
156.0
 20
105.0
 30
0.0
 40
0.7999998
  0
CIRCLE
  8
0
  6
CONTINUOUS
 62
     2
 10
156.0
 20
105.0
 30
0.0
 40
0.74666648
  0
CIRCLE
  8
0
  6
CONTINUOUS
 62
     2
 10
156.0
 20
105.0
 30
0.0
 40
1.5999996
  0
CIRCLE
  8
0
  6
CONTINUOUS
 62
     2
 10
156.0
 20
105.0
 30
0.0
 40
1.333333
  0
LINE
  8
0
  6
LTYPE3
 62
     2
 10
156.0
 20
101.5
 30
0.0
 11
156.0
 21
108.5
 31
0.0
  0
LINE
  8
0
  6
LTYPE3
 62
     2
 10
152.5
 20
105.0
 30
0.0
 11
159.5
 21
105.0
 31
0.0
  0
CIRCLE
  8
0
  6
CONTINUOUS
 62
     2
 10
192.0
 20
105.0
 30
0.0
 40
2.5
  0
LINE
  8
0
  6
CONTINUOUS
 62
     2
 10
190.70673572
 20
104.25333352
 30
0.0
 11
192.0
 21
103.50666704
 31
0.0
  0
LINE
  8
0
  6
CONTINUOUS
 62
     2
 10
192.0
 20
103.50666704
 30
0.0
 11
193.29326428
 21
104.25333352
 31
0.0
  0
LINE
  8
0
  6
CONTINUOUS
 62
     2
 10
193.29326428
 20
104.25333352
 30
0.0
 11
193.29326428
 21
105.74666648
 31
0.0
  0
LINE
  8
0
  6
CONTINUOUS
 62
     2
 10
193.29326428
 20
105.74666648
 30
0.0
 11
192.0
 21
106.49333296
 31
0.0
  0
LINE
  8
0
  6
CONTINUOUS
 62
     2
 10
192.0
 20
106.49333296
 30
0.0
 11
190.70673572
 21
105.74666648
 31
0.0
  0
LINE
  8
0
  6
CONTINUOUS
 62
     2
 10
190.70673572
 20
105.74666648
 30
0.0
 11
190.70673572
 21
104.25333352
 31
0.0
  0
CIRCLE
  8
0
  6
CONTINUOUS
 62
     2
 10
192.0
 20
105.0
 30
0.0
 40
0.7999998
  0
CIRCLE
  8
0
  6
CONTINUOUS
 62
     2
 10
192.0
 20
105.0
 30
0.0
 40
0.74666648
  0
CIRCLE
  8
0
  6
CONTINUOUS
 62
     2
 10
192.0
 20
105.0
 30
0.0
 40
1.5999996
  0
CIRCLE
  8
0
  6
CONTINUOUS
 62
     2
 10
192.0
 20
105.0
 30
0.0
 40
1.333333
  0
LINE
  8
0
  6
LTYPE3
 62
     2
 10
192.0
 20
101.5
 30
0.0
 11
192.0
 21
108.5
 31
0.0
  0
LINE
  8
0
  6
LTYPE3
 62
     2
 10
195.5
 20
105.0
 30
0.0
 11
188.5
 21
105.0
 31
0.0
  0
LINE
  8
0
  6
LTYPE0
 62
     2
 10
174.0
 20
153.0
 30
0.0
 11
174.0
 21
93.0
 31
0.0
  0
CIRCLE
  8
0
  6
CONTINUOUS
 62
     2
 10
168.0
 20
130.0
 30
0.0
 40
1.27
  0
CIRCLE
  8
0
  6
CONTINUOUS
 62
     2
 10
168.0
 20
130.0
 30
0.0
 40
1.0
  0
LINE
  8
0
  6
CONTINUOUS
 62
     2
 10
168.14
 20
130.55
 30
0.0
 11
167.86
 21
130.55
 31
0.0
  0
LINE
  8
0
  6
CONTINUOUS
 62
     2
 10
167.86
 20
129.45
 30
0.0
 11
168.14
 21
129.45
 31
0.0
  0
LINE
  8
0
  6
CONTINUOUS
 62
     2
 10
167.86
 20
130.55
 30
0.0
 11
167.86
 21
130.44
 31
0.0
  0
LINE
  8
0
  6
CONTINUOUS
 62
     2
 10
167.56
 20
130.14
 30
0.0
 11
167.009848496
 21
130.14
 31
0.0
  0
ARC
  8
0
  6
CONTINUOUS
 62
     2
 10
167.56
 20
130.44
 30
0.0
 40
0.3
 50
270.0
 51
0.0
  0
LINE
  8
0
  6
CONTINUOUS
 62
     2
 10
168.14
 20
130.44
 30
0.0
 11
168.14
 21
130.55
 31
0.0
  0
LINE
  8
0
  6
CONTINUOUS
 62
     2
 10
168.98
 20
130.14
 30
0.0
 11
168.44
 21
130.14
 31
0.0
  0
ARC
  8
0
  6
CONTINUOUS
 62
     2
 10
168.44
 20
130.44
 30
0.0
 40
0.3
 50
180.0
 51
270.0
  0
LINE
  8
0
  6
CONTINUOUS
 62
     2
 10
168.14
 20
129.45
 30
0.0
 11
168.14
 21
129.56
 31
0.0
  0
LINE
  8
0
  6
CONTINUOUS
 62
     2
 10
168.44
 20
129.86
 30
0.0
 11
168.990151504
 21
129.86
 31
0.0
  0
ARC
  8
0
  6
CONTINUOUS
 62
     2
 10
168.44
 20
129.56
 30
0.0
 40
0.3
 50
90.0
 51
180.0
  0
LINE
  8
0
  6
CONTINUOUS
 62
     2
 10
167.86
 20
129.56
 30
0.0
 11
167.86
 21
129.45
 31
0.0
  0
LINE
  8
0
  6
CONTINUOUS
 62
     2
 10
167.009848496
 20
129.86
 30
0.0
 11
167.56
 21
129.86
 31
0.0
  0
ARC
  8
0
  6
CONTINUOUS
 62
     2
 10
167.56
 20
129.56
 30
0.0
 40
0.3
 50
0.0
 51
90.0
  0
CIRCLE
  8
0
  6
CONTINUOUS
 62
     2
 10
180.0
 20
130.0
 30
0.0
 40
1.27
  0
CIRCLE
  8
0
  6
CONTINUOUS
 62
     2
 10
180.0
 20
130.0
 30
0.0
 40
1.0
  0
LINE
  8
0
  6
CONTINUOUS
 62
     2
 10
179.86
 20
130.55
 30
0.0
 11
180.14
 21
130.55
 31
0.0
  0
LINE
  8
0
  6
CONTINUOUS
 62
     2
 10
180.14
 20
129.45
 30
0.0
 11
179.86
 21
129.45
 31
0.0
  0
LINE
  8
0
  6
CONTINUOUS
 62
     2
 10
180.14
 20
130.55
 30
0.0
 11
180.14
 21
130.44
 31
0.0
  0
LINE
  8
0
  6
CONTINUOUS
 62
     2
 10
180.44
 20
130.14
 30
0.0
 11
180.990151504
 21
130.14
 31
0.0
  0
ARC
  8
0
  6
CONTINUOUS
 62
     2
 10
180.44
 20
130.44
 30
0.0
 40
0.3
 50
180.0
 51
270.0
  0
LINE
  8
0
  6
CONTINUOUS
 62
     2
 10
179.86
 20
130.44
 30
0.0
 11
179.86
 21
130.55
 31
0.0
  0
LINE
  8
0
  6
CONTINUOUS
 62
     2
 10
179.02
 20
130.14
 30
0.0
 11
179.56
 21
130.14
 31
0.0
  0
ARC
  8
0
  6
CONTINUOUS
 62
     2
 10
179.56
 20
130.44
 30
0.0
 40
0.3
 50
270.0
 51
0.0
  0
LINE
  8
0
  6
CONTINUOUS
 62
     2
 10
179.86
 20
129.45
 30
0.0
 11
179.86
 21
129.56
 31
0.0
  0
LINE
  8
0
  6
CONTINUOUS
 62
     2
 10
179.56
 20
129.86
 30
0.0
 11
179.009848496
 21
129.86
 31
0.0
  0
ARC
  8
0
  6
CONTINUOUS
 62
     2
 10
179.56
 20
129.56
 30
0.0
 40
0.3
 50
360.0
 51
90.0
  0
LINE
  8
0
  6
CONTINUOUS
 62
     2
 10
180.14
 20
129.56
 30
0.0
 11
180.14
 21
129.45
 31
0.0
  0
LINE
  8
0
  6
CONTINUOUS
 62
     2
 10
180.990151504
 20
129.86
 30
0.0
 11
180.44
 21
129.86
 31
0.0
  0
ARC
  8
0
  6
CONTINUOUS
 62
     2
 10
180.44
 20
129.56
 30
0.0
 40
0.3
 50
90.0
 51
180.0
  0
LINE
  8
0
  6
LTYPE0
 62
     2
 10
168.0
 20
132.0
 30
0.0
 11
168.0
 21
128.0
 31
0.0
  0
LINE
  8
0
  6
LTYPE0
 62
     2
 10
166.0
 20
130.0
 30
0.0
 11
170.0
 21
130.0
 31
0.0
  0
LINE
  8
0
  6
LTYPE0
 62
     2
 10
178.0
 20
130.0
 30
0.0
 11
182.0
 21
130.0
 31
0.0
  0
LINE
  8
0
  6
LTYPE0
 62
     2
 10
180.0
 20
132.0
 30
0.0
 11
180.0
 21
128.0
 31
0.0
  0
LINE
  8
0
  6
CONTINUOUS
 62
     2
 10
166.0
 20
132.3
 30
0.0
 11
167.5
 21
132.3
 31
0.0
  0
LINE
  8
0
  6
CONTINUOUS
 62
     2
 10
166.75
 20
131.55
 30
0.0
 11
166.75
 21
133.05
 31
0.0
  0
POINT
  8
0
  6
LTYPE0
 62
     2
 10
47.0
 20
93.0
 30
0.0
  0
POINT
  8
0
  6
LTYPE0
 62
     2
 10
47.0
 20
153.0
 30
0.0
  0
POINT
  8
0
  6
LTYPE0
 62
     2
 10
77.0
 20
123.0
 30
0.0
  0
POINT
  8
0
  6
LTYPE0
 62
     2
 10
17.0
 20
123.0
 30
0.0
  0
LINE
  8
0
  6
CONTINUOUS
 62
     1
 10
101.0
 20
98.0
 30
0.0
 11
101.0
 21
148.0
 31
0.0
  0
CIRCLE
  8
0
  6
CONTINUOUS
 62
     2
 10
47.0
 20
123.0
 30
0.0
 40
21.0
  0
CIRCLE
  8
0
  6
CONTINUOUS
 62
     2
 10
47.0
 20
123.0
 30
0.0
 40
5.9
  0
CIRCLE
  8
0
  6
CONTINUOUS
 62
     2
 10
47.0
 20
123.0
 30
0.0
 40
2.0
  0
ARC
  8
0
  6
CONTINUOUS
 62
     1
 10
27.0
 20
143.0
 30
0.0
 40
5.0
 50
90.0
 51
180.0
  0
LINE
  8
0
  6
CONTINUOUS
 62
     1
 10
67.0
 20
148.0
 30
0.0
 11
27.0
 21
148.0
 31
0.0
  0
ARC
  8
0
  6
CONTINUOUS
 62
     1
 10
67.0
 20
143.0
 30
0.0
 40
5.0
 50
0.0
 51
90.0
  0
LINE
  8
0
  6
CONTINUOUS
 62
     1
 10
72.0
 20
103.0
 30
0.0
 11
72.0
 21
143.0
 31
0.0
  0
ARC
  8
0
  6
CONTINUOUS
 62
     1
 10
67.0
 20
103.0
 30
0.0
 40
5.0
 50
270.0
 51
0.0
  0
LINE
  8
0
  6
CONTINUOUS
 62
     1
 10
22.0
 20
143.0
 30
0.0
 11
22.0
 21
103.0
 31
0.0
  0
LINE
  8
0
  6
CONTINUOUS
 62
     1
 10
27.0
 20
98.0
 30
0.0
 11
67.0
 21
98.0
 31
0.0
  0
ARC
  8
0
  6
CONTINUOUS
 62
     1
 10
27.0
 20
103.0
 30
0.0
 40
5.0
 50
180.0
 51
270.0
  0
LINE
  8
0
  6
CONTINUOUS
 62
     2
 10
106.2
 20
109.5
 30
0.0
 11
106.847047613
 21
111.914814566
 31
0.0
  0
LINE
  8
0
  6
CONTINUOUS
 62
     2
 10
106.2
 20
109.5
 30
0.0
 11
105.552952387
 21
111.914814566
 31
0.0
  0
LINE
  8
0
  6
CONTINUOUS
 62
     2
 10
106.2
 20
109.5
 30
0.0
 11
106.2
 21
136.5
 31
0.0
  0
LINE
  8
0
  6
CONTINUOUS
 62
     2
 10
106.2
 20
136.5
 30
0.0
 11
105.552952387
 21
134.085185434
 31
0.0
  0
LINE
  8
0
  6
CONTINUOUS
 62
     2
 10
106.2
 20
136.5
 30
0.0
 11
106.847047613
 21
134.085185434
 31
0.0
  0
TEXT
  8
0
  6
CONTINUOUS
 62
     2
 10
105.2
 20
125.28
 30
0.18
 40
1.8
  1
±１
 50
90.0
 41
0.6
 51
0.0
  7
KANJI1
  0
LINE
  8
0
  6
CONTINUOUS
 62
     2
 10
112.0
 20
163.0
 30
0.0
 11
109.585185434
 21
163.647047613
 31
0.0
  0
LINE
  8
0
  6
CONTINUOUS
 62
     2
 10
112.0
 20
163.0
 30
0.0
 11
109.585185434
 21
162.352952387
 31
0.0
  0
LINE
  8
0
  6
CONTINUOUS
 62
     2
 10
112.0
 20
137.5
 30
0.0
 11
112.0
 21
165.0
 31
0.0
  0
TEXT
  8
0
  6
CONTINUOUS
 62
     2
 10
104.55
 20
164.0
 30
0.3
 40
3.0
  1
５５
 50
0.0
 41
0.6
 51
0.0
  7
KANJI0
  0
LINE
  8
0
  6
CONTINUOUS
 62
     2
 10
112.0
 20
163.0
 30
0.0
 11
109.585185434
 21
163.647047613
 31
0.0
  0
LINE
  8
0
  6
CONTINUOUS
 62
     2
 10
112.0
 20
163.0
 30
0.0
 11
109.585185434
 21
162.352952387
 31
0.0
  0
LINE
  8
0
  6
CONTINUOUS
 62
     2
 10
108.25
 20
163.0
 30
0.0
 11
112.0
 21
163.0
 31
0.0
  0
LINE
  8
0
  6
CONTINUOUS
 62
     2
 10
112.0
 20
163.0
 30
0.0
 11
115.0
 21
163.0
 31
0.0
  0
LINE
  8
0
  6
CONTINUOUS
 62
     2
 10
115.0
 20
163.0
 30
0.0
 11
122.65
 21
163.0
 31
0.0
  0
LINE
  8
0
  6
CONTINUOUS
 62
     2
 10
115.0
 20
163.0
 30
0.0
 11
117.414814566
 21
162.352952387
 31
0.0
  0
LINE
  8
0
  6
CONTINUOUS
 62
     2
 10
115.0
 20
163.0
 30
0.0
 11
117.414814566
 21
163.647047613
 31
0.0
  0
LINE
  8
0
  6
CONTINUOUS
 62
     2
 10
115.0
 20
134.0
 30
0.0
 11
115.0
 21
165.0
 31
0.0
  0
TEXT
  8
0
  6
CONTINUOUS
 62
     2
 10
118.75
 20
164.0
 30
0.3
 40
3.0
  1
１５
 50
0.0
 41
0.6
 51
0.0
  7
KANJI0
  0
LINE
  8
0
  6
CONTINUOUS
 62
     2
 10
106.2
 20
154.0
 30
0.0
 11
113.85
 21
154.0
 31
0.0
  0
LINE
  8
0
  6
CONTINUOUS
 62
     2
 10
106.2
 20
154.0
 30
0.0
 11
108.614814566
 21
153.352952387
 31
0.0
  0
LINE
  8
0
  6
CONTINUOUS
 62
     2
 10
106.2
 20
154.0
 30
0.0
 11
108.614814566
 21
154.647047613
 31
0.0
  0
LINE
  8
0
  6
CONTINUOUS
 62
     2
 10
94.0
 20
149.0
 30
0.0
 11
94.0
 21
165.0
 31
0.0
  0
LINE
  8
0
  6
CONTINUOUS
 62
     2
 10
94.0
 20
163.0
 30
0.0
 11
91.585185434
 21
163.647047613
 31
0.0
  0
LINE
  8
0
  6
CONTINUOUS
 62
     2
 10
94.0
 20
163.0
 30
0.0
 11
91.585185434
 21
162.352952387
 31
0.0
  0
LINE
  8
0
  6
CONTINUOUS
 62
     2
 10
90.25
 20
163.0
 30
0.0
 11
94.0
 21
163.0
 31
0.0
  0
LINE
  8
0
  6
CONTINUOUS
 62
     2
 10
94.0
 20
163.0
 30
0.0
 11
101.0
 21
163.0
 31
0.0
  0
LINE
  8
0
  6
CONTINUOUS
 62
     2
 10
101.0
 20
163.0
 30
0.0
 11
104.75
 21
163.0
 31
0.0
  0
LINE
  8
0
  6
CONTINUOUS
 62
     2
 10
101.0
 20
163.0
 30
0.0
 11
103.414814566
 21
162.352952387
 31
0.0
  0
LINE
  8
0
  6
CONTINUOUS
 62
     2
 10
101.0
 20
163.0
 30
0.0
 11
103.414814566
 21
163.647047613
 31
0.0
  0
TEXT
  8
0
  6
CONTINUOUS
 62
     2
 10
95.6
 20
164.0
 30
0.3
 40
3.0
  1
３５
 50
0.0
 41
0.6
 51
0.0
  7
KANJI0
  0
LINE
  8
0
  6
CONTINUOUS
 62
     2
 10
101.0
 20
163.0
 30
0.0
 11
103.414814566
 21
162.352952387
 31
0.0
  0
LINE
  8
0
  6
CONTINUOUS
 62
     2
 10
101.0
 20
163.0
 30
0.0
 11
103.414814566
 21
163.647047613
 31
0.0
  0
LINE
  8
0
  6
CONTINUOUS
 62
     2
 10
101.0
 20
163.0
 30
0.0
 11
112.0
 21
163.0
 31
0.0
  0
TEXT
  8
0
  6
CONTINUOUS
 62
     2
 10
95.45
 20
155.0
 30
0.3
 40
3.0
  1
１
 50
0.0
 41
0.6
 51
0.0
  7
KANJI0
  0
LINE
  8
0
  6
CONTINUOUS
 62
     2
 10
101.2
 20
154.0
 30
0.0
 11
106.2
 21
154.0
 31
0.0
  0
LINE
  8
0
  6
CONTINUOUS
 62
     2
 10
101.0
 20
154.0
 30
0.0
 11
98.585185434
 21
154.647047613
 31
0.0
  0
LINE
  8
0
  6
CONTINUOUS
 62
     2
 10
101.0
 20
154.0
 30
0.0
 11
98.585185434
 21
153.352952387
 31
0.0
  0
LINE
  8
0
  6
CONTINUOUS
 62
     2
 10
95.45
 20
154.0
 30
0.0
 11
101.0
 21
154.0
 31
0.0
  0
LINE
  8
0
  6
CONTINUOUS
 62
     2
 10
97.45
 20
154.0
 30
0.0
 11
101.2
 21
154.0
 31
0.0
  0
LINE
  8
0
  6
CONTINUOUS
 62
     2
 10
101.0
 20
149.0
 30
0.0
 11
101.0
 21
165.0
 31
0.0
  0
LINE
  8
0
  6
CONTINUOUS
 62
     2
 10
101.0
 20
107.5
 30
0.0
 11
101.2
 21
107.5
 31
0.0
  0
LINE
  8
0
  6
CONTINUOUS
 62
     2
 10
101.2
 20
107.5
 30
0.0
 11
101.2
 21
102.5
 31
0.0
  0
LINE
  8
0
  6
CONTINUOUS
 62
     2
 10
101.2
 20
102.5
 30
0.0
 11
101.0
 21
102.5
 31
0.0
  0
ARC
  8
0
  6
CONTINUOUS
 62
     2
 10
103.85732794
 20
106.1333305
 30
0.0
 40
0.666665
 50
325.0
 51
35.0
  0
ARC
  8
0
  6
CONTINUOUS
 62
     2
 10
103.85732794
 20
106.1333305
 30
0.0
 40
0.666665
 50
145.0
 51
215.0
  0
LINE
  8
0
  6
CONTINUOUS
 62
     2
 10
104.407140606
 20
106.5199962
 30
0.0
 11
103.19066294
 21
106.5199962
 31
0.0
  0
LINE
  8
0
  6
CONTINUOUS
 62
     2
 10
104.52399294
 20
103.8666695
 30
0.0
 11
104.52399294
 21
106.1333305
 31
0.0
  0
LINE
  8
0
  6
CONTINUOUS
 62
     2
 10
103.19066294
 20
106.5199962
 30
0.0
 11
103.19066294
 21
103.8666695
 31
0.0
  0
LINE
  8
0
  6
CONTINUOUS
 62
     2
 10
102.55066454
 20
105.0266666
 30
0.0
 11
102.73733074
 21
106.599996
 31
0.0
  0
LINE
  8
0
  6
CONTINUOUS
 62
     2
 10
102.73733074
 20
106.599996
 30
0.0
 11
102.31066514
 21
106.599996
 31
0.0
  0
LINE
  8
0
  6
CONTINUOUS
 62
     2
 10
102.31066514
 20
106.599996
 30
0.0
 11
102.12399894
 21
105.0266666
 31
0.0
  0
LINE
  8
0
  6
CONTINUOUS
 62
     2
 10
101.69733334
 20
106.6266626
 30
0.0
 11
102.12399894
 21
106.6266626
 31
0.0
  0
LINE
  8
0
  6
CONTINUOUS
 62
     2
 10
102.12399894
 20
106.6266626
 30
0.0
 11
102.12399894
 21
103.37200407
 31
0.0
  0
LINE
  8
0
  6
CONTINUOUS
 62
     2
 10
101.7
 20
103.37200407
 30
0.0
 11
101.7
 21
106.6266626
 31
0.0
  0
ARC
  8
0
  6
CONTINUOUS
 62
     2
 10
101.85733294
 20
105.0
 30
0.0
 40
2.66666
 50
343.5
 51
16.5
  0
ARC
  8
0
  6
CONTINUOUS
 62
     2
 10
105.85732294
 20
105.0
 30
0.0
 40
2.66666
 50
163.5
 51
196.3
  0
ARC
  8
0
  6
CONTINUOUS
 62
     2
 10
103.85732794
 20
103.8666695
 30
0.0
 40
0.666665
 50
145.0
 51
215.0
  0
ARC
  8
0
  6
CONTINUOUS
 62
     2
 10
103.85732794
 20
103.8666695
 30
0.0
 40
0.666665
 50
325.0
 51
35.0
  0
LINE
  8
0
  6
CONTINUOUS
 62
     2
 10
103.29784856
 20
104.251557314
 30
0.0
 11
104.40451246
 21
104.251557314
 31
0.0
  0
LINE
  8
0
  6
CONTINUOUS
 62
     2
 10
104.414179174
 20
105.757372359
 30
0.0
 11
103.300476706
 21
105.757372359
 31
0.0
  0
LINE
  8
0
  6
CONTINUOUS
 62
     2
 10
103.31066264
 20
103.4800038
 30
0.0
 11
104.40399324
 21
103.4800038
 31
0.0
  0
LINE
  8
0
  6
CONTINUOUS
 62
     2
 10
102.31066514
 20
103.400004
 30
0.0
 11
102.73733074
 21
103.400004
 31
0.0
  0
LINE
  8
0
  6
CONTINUOUS
 62
     2
 10
102.12399894
 20
105.0266666
 30
0.0
 11
102.55066454
 21
105.0266666
 31
0.0
  0
LINE
  8
0
  6
CONTINUOUS
 62
     2
 10
102.92399694
 20
104.9733334
 30
0.0
 11
102.49733134
 21
104.9733334
 31
0.0
  0
LINE
  8
0
  6
CONTINUOUS
 62
     2
 10
102.49733134
 20
104.9733334
 30
0.0
 11
102.31066514
 21
103.400004
 31
0.0
  0
LINE
  8
0
  6
CONTINUOUS
 62
     2
 10
102.73733074
 20
103.400004
 30
0.0
 11
102.92399694
 21
104.9733334
 31
0.0
  0
LINE
  8
0
  6
CONTINUOUS
 62
     2
 10
102.12399894
 20
103.37200407
 30
0.0
 11
101.7
 21
103.37200407
 31
0.0
  0
LINE
  8
0
  6
CONTINUOUS
 62
     2
 10
106.2
 20
104.26
 30
0.0
 11
104.52399294
 21
104.26
 31
0.0
  0
LINE
  8
0
  6
CONTINUOUS
 62
     2
 10
106.2
 20
105.74
 30
0.0
 11
104.52399294
 21
105.74
 31
0.0
  0
LINE
  8
0
  6
CONTINUOUS
 62
     2
 10
103.19066294
 20
104.26
 30
0.0
 11
102.839364164
 21
104.26
 31
0.0
  0
LINE
  8
0
  6
CONTINUOUS
 62
     2
 10
103.19066294
 20
105.74
 30
0.0
 11
102.635297316
 21
105.74
 31
0.0
  0
LINE
  8
0
  6
CONTINUOUS
 62
     2
 10
102.64241596
 20
105.8
 30
0.0
 11
103.19066294
 21
105.8
 31
0.0
  0
LINE
  8
0
  6
CONTINUOUS
 62
     2
 10
102.12399894
 20
105.8
 30
0.0
 11
102.21575036
 21
105.8
 31
0.0
  0
LINE
  8
0
  6
CONTINUOUS
 62
     2
 10
102.208631716
 20
105.74
 30
0.0
 11
102.12399894
 21
105.74
 31
0.0
  0
LINE
  8
0
  6
CONTINUOUS
 62
     2
 10
102.412698564
 20
104.26
 30
0.0
 11
102.12399894
 21
104.26
 31
0.0
  0
LINE
  8
0
  6
CONTINUOUS
 62
     2
 10
102.40557992
 20
104.2
 30
0.0
 11
102.12399894
 21
104.2
 31
0.0
  0
LINE
  8
0
  6
CONTINUOUS
 62
     2
 10
103.19066294
 20
104.2
 30
0.0
 11
102.83224552
 21
104.2
 31
0.0
  0
LINE
  8
0
  6
CONTINUOUS
 62
     2
 10
104.52399294
 20
104.2
 30
0.0
 11
106.107623957
 21
104.2
 31
0.0
  0
LINE
  8
0
  6
CONTINUOUS
 62
     2
 10
102.83224552
 20
104.2
 30
0.0
 11
103.19066294
 21
104.2
 31
0.0
  0
LINE
  8
0
  6
CONTINUOUS
 62
     2
 10
104.52399294
 20
105.8
 30
0.0
 11
106.165358984
 21
105.8
 31
0.0
  0
LINE
  8
0
  6
CONTINUOUS
 62
     2
 10
106.165358984
 20
104.2
 30
0.0
 11
104.52399294
 21
104.2
 31
0.0
  0
LINE
  8
0
  6
CONTINUOUS
 62
     2
 10
106.2
 20
104.26
 30
0.0
 11
106.165358984
 21
104.2
 31
0.0
  0
LINE
  8
0
  6
CONTINUOUS
 62
     2
 10
106.2
 20
105.74
 30
0.0
 11
106.165358984
 21
105.8
 31
0.0
  0
LINE
  8
0
  6
CONTINUOUS
 62
     2
 10
106.2
 20
105.74
 30
0.0
 11
106.2
 21
104.26
 31
0.0
  0
LINE
  8
0
  6
CONTINUOUS
 62
     2
 10
101.2
 20
105.8
 30
0.0
 11
101.7
 21
105.8
 31
0.0
  0
LINE
  8
0
  6
CONTINUOUS
 62
     2
 10
101.7
 20
105.74
 30
0.0
 11
101.2
 21
105.74
 31
0.0
  0
LINE
  8
0
  6
CONTINUOUS
 62
     2
 10
101.2
 20
104.2
 30
0.0
 11
102.40557992
 21
104.2
 31
0.0
  0
LINE
  8
0
  6
CONTINUOUS
 62
     2
 10
101.7
 20
104.26
 30
0.0
 11
101.2
 21
104.26
 31
0.0
  0
LINE
  8
0
  6
CONTINUOUS
 62
     2
 10
101.7
 20
104.2
 30
0.0
 11
101.2
 21
104.2
 31
0.0
  0
LINE
  8
0
  6
LTYPE0
 62
     2
 10
101.0
 20
105.0
 30
0.0
 11
107.5
 21
105.0
 31
0.0
  0
LINE
  8
0
  6
CONTINUOUS
 62
     2
 10
101.0
 20
143.5
 30
0.0
 11
101.2
 21
143.5
 31
0.0
  0
LINE
  8
0
  6
CONTINUOUS
 62
     2
 10
101.2
 20
143.5
 30
0.0
 11
101.2
 21
138.5
 31
0.0
  0
LINE
  8
0
  6
CONTINUOUS
 62
     2
 10
101.2
 20
138.5
 30
0.0
 11
101.0
 21
138.5
 31
0.0
  0
ARC
  8
0
  6
CONTINUOUS
 62
     2
 10
103.85732794
 20
142.1333305
 30
0.0
 40
0.666665
 50
325.0
 51
35.0
  0
ARC
  8
0
  6
CONTINUOUS
 62
     2
 10
103.85732794
 20
142.1333305
 30
0.0
 40
0.666665
 50
145.0
 51
215.0
  0
LINE
  8
0
  6
CONTINUOUS
 62
     2
 10
104.407140606
 20
142.5199962
 30
0.0
 11
103.19066294
 21
142.5199962
 31
0.0
  0
LINE
  8
0
  6
CONTINUOUS
 62
     2
 10
104.52399294
 20
139.8666695
 30
0.0
 11
104.52399294
 21
142.1333305
 31
0.0
  0
LINE
  8
0
  6
CONTINUOUS
 62
     2
 10
103.19066294
 20
142.5199962
 30
0.0
 11
103.19066294
 21
139.8666695
 31
0.0
  0
LINE
  8
0
  6
CONTINUOUS
 62
     2
 10
102.55066454
 20
141.0266666
 30
0.0
 11
102.73733074
 21
142.599996
 31
0.0
  0
LINE
  8
0
  6
CONTINUOUS
 62
     2
 10
102.73733074
 20
142.599996
 30
0.0
 11
102.31066514
 21
142.599996
 31
0.0
  0
LINE
  8
0
  6
CONTINUOUS
 62
     2
 10
102.31066514
 20
142.599996
 30
0.0
 11
102.12399894
 21
141.0266666
 31
0.0
  0
LINE
  8
0
  6
CONTINUOUS
 62
     2
 10
101.69733334
 20
142.6266626
 30
0.0
 11
102.12399894
 21
142.6266626
 31
0.0
  0
LINE
  8
0
  6
CONTINUOUS
 62
     2
 10
102.12399894
 20
142.6266626
 30
0.0
 11
102.12399894
 21
139.37200407
 31
0.0
  0
LINE
  8
0
  6
CONTINUOUS
 62
     2
 10
101.7
 20
139.37200407
 30
0.0
 11
101.7
 21
142.6266626
 31
0.0
  0
ARC
  8
0
  6
CONTINUOUS
 62
     2
 10
101.85733294
 20
141.0
 30
0.0
 40
2.66666
 50
343.5
 51
16.5
  0
ARC
  8
0
  6
CONTINUOUS
 62
     2
 10
105.85732294
 20
141.0
 30
0.0
 40
2.66666
 50
163.5
 51
196.3
  0
ARC
  8
0
  6
CONTINUOUS
 62
     2
 10
103.85732794
 20
139.8666695
 30
0.0
 40
0.666665
 50
145.0
 51
215.0
  0
ARC
  8
0
  6
CONTINUOUS
 62
     2
 10
103.85732794
 20
139.8666695
 30
0.0
 40
0.666665
 50
325.0
 51
35.0
  0
LINE
  8
0
  6
CONTINUOUS
 62
     2
 10
103.29784856
 20
140.251557314
 30
0.0
 11
104.40451246
 21
140.251557314
 31
0.0
  0
LINE
  8
0
  6
CONTINUOUS
 62
     2
 10
104.414179174
 20
141.757372359
 30
0.0
 11
103.300476706
 21
141.757372359
 31
0.0
  0
LINE
  8
0
  6
CONTINUOUS
 62
     2
 10
103.31066264
 20
139.4800038
 30
0.0
 11
104.40399324
 21
139.4800038
 31
0.0
  0
LINE
  8
0
  6
CONTINUOUS
 62
     2
 10
102.31066514
 20
139.400004
 30
0.0
 11
102.73733074
 21
139.400004
 31
0.0
  0
LINE
  8
0
  6
CONTINUOUS
 62
     2
 10
102.12399894
 20
141.0266666
 30
0.0
 11
102.55066454
 21
141.0266666
 31
0.0
  0
LINE
  8
0
  6
CONTINUOUS
 62
     2
 10
102.92399694
 20
140.9733334
 30
0.0
 11
102.49733134
 21
140.9733334
 31
0.0
  0
LINE
  8
0
  6
CONTINUOUS
 62
     2
 10
102.49733134
 20
140.9733334
 30
0.0
 11
102.31066514
 21
139.400004
 31
0.0
  0
LINE
  8
0
  6
CONTINUOUS
 62
     2
 10
102.73733074
 20
139.400004
 30
0.0
 11
102.92399694
 21
140.9733334
 31
0.0
  0
LINE
  8
0
  6
CONTINUOUS
 62
     2
 10
102.12399894
 20
139.37200407
 30
0.0
 11
101.7
 21
139.37200407
 31
0.0
  0
LINE
  8
0
  6
CONTINUOUS
 62
     2
 10
106.2
 20
140.26
 30
0.0
 11
104.52399294
 21
140.26
 31
0.0
  0
LINE
  8
0
  6
CONTINUOUS
 62
     2
 10
106.2
 20
141.74
 30
0.0
 11
104.52399294
 21
141.74
 31
0.0
  0
LINE
  8
0
  6
CONTINUOUS
 62
     2
 10
103.19066294
 20
140.26
 30
0.0
 11
102.839364164
 21
140.26
 31
0.0
  0
LINE
  8
0
  6
CONTINUOUS
 62
     2
 10
103.19066294
 20
141.74
 30
0.0
 11
102.635297316
 21
141.74
 31
0.0
  0
LINE
  8
0
  6
CONTINUOUS
 62
     2
 10
102.64241596
 20
141.8
 30
0.0
 11
103.19066294
 21
141.8
 31
0.0
  0
LINE
  8
0
  6
CONTINUOUS
 62
     2
 10
102.12399894
 20
141.8
 30
0.0
 11
102.21575036
 21
141.8
 31
0.0
  0
LINE
  8
0
  6
CONTINUOUS
 62
     2
 10
102.208631716
 20
141.74
 30
0.0
 11
102.12399894
 21
141.74
 31
0.0
  0
LINE
  8
0
  6
CONTINUOUS
 62
     2
 10
102.412698564
 20
140.26
 30
0.0
 11
102.12399894
 21
140.26
 31
0.0
  0
LINE
  8
0
  6
CONTINUOUS
 62
     2
 10
102.40557992
 20
140.2
 30
0.0
 11
102.12399894
 21
140.2
 31
0.0
  0
LINE
  8
0
  6
CONTINUOUS
 62
     2
 10
103.19066294
 20
140.2
 30
0.0
 11
102.83224552
 21
140.2
 31
0.0
  0
LINE
  8
0
  6
CONTINUOUS
 62
     2
 10
104.52399294
 20
140.2
 30
0.0
 11
106.107623957
 21
140.2
 31
0.0
  0
LINE
  8
0
  6
CONTINUOUS
 62
     2
 10
102.83224552
 20
140.2
 30
0.0
 11
103.19066294
 21
140.2
 31
0.0
  0
LINE
  8
0
  6
CONTINUOUS
 62
     2
 10
104.52399294
 20
141.8
 30
0.0
 11
106.165358984
 21
141.8
 31
0.0
  0
LINE
  8
0
  6
CONTINUOUS
 62
     2
 10
106.165358984
 20
140.2
 30
0.0
 11
104.52399294
 21
140.2
 31
0.0
  0
LINE
  8
0
  6
CONTINUOUS
 62
     2
 10
106.2
 20
140.26
 30
0.0
 11
106.165358984
 21
140.2
 31
0.0
  0
LINE
  8
0
  6
CONTINUOUS
 62
     2
 10
106.2
 20
141.74
 30
0.0
 11
106.165358984
 21
141.8
 31
0.0
  0
LINE
  8
0
  6
CONTINUOUS
 62
     2
 10
106.2
 20
141.74
 30
0.0
 11
106.2
 21
140.26
 31
0.0
  0
LINE
  8
0
  6
CONTINUOUS
 62
     2
 10
101.2
 20
141.8
 30
0.0
 11
101.7
 21
141.8
 31
0.0
  0
LINE
  8
0
  6
CONTINUOUS
 62
     2
 10
101.7
 20
141.74
 30
0.0
 11
101.2
 21
141.74
 31
0.0
  0
LINE
  8
0
  6
CONTINUOUS
 62
     2
 10
101.2
 20
140.2
 30
0.0
 11
102.40557992
 21
140.2
 31
0.0
  0
LINE
  8
0
  6
CONTINUOUS
 62
     2
 10
101.7
 20
140.26
 30
0.0
 11
101.2
 21
140.26
 31
0.0
  0
LINE
  8
0
  6
CONTINUOUS
 62
     2
 10
101.7
 20
140.2
 30
0.0
 11
101.2
 21
140.2
 31
0.0
  0
LINE
  8
0
  6
LTYPE0
 62
     2
 10
101.0
 20
141.0
 30
0.0
 11
107.5
 21
141.0
 31
0.0
  0
LINE
  8
0
  6
CONTINUOUS
 62
     2
 10
101.2
 20
144.0
 30
0.0
 11
101.2
 21
156.0
 31
0.0
  0
LINE
  8
0
  6
CONTINUOUS
 62
     2
 10
106.2
 20
156.0
 30
0.0
 11
106.2
 21
142.3
 31
0.0
  0
TEXT
  8
0
  6
CONTINUOUS
 62
     2
 10
107.45
 20
155.0
 30
0.3
 40
3.0
  1
２５
 50
0.0
 41
0.6
 51
0.0
  7
KANJI0
  0
LINE
  8
0
  6
LTYPE0
 62
     2
 10
47.0
 20
153.0
 30
0.0
 11
47.0
 21
93.0
 31
0.0
  0
LINE
  8
0
  6
LTYPE0
 62
     2
 10
77.0
 20
123.0
 30
0.0
 11
17.0
 21
123.0
 31
0.0
  0
LINE
  8
0
  6
CONTINUOUS
 62
     1
 10
111.7
 20
109.5
 30
0.0
 11
101.0
 21
109.5
 31
0.0
  0
ARC
  8
0
  6
CONTINUOUS
 62
     1
 10
111.7
 20
109.8
 30
0.0
 40
0.3
 50
270.0
 51
0.0
  0
LINE
  8
0
  6
CONTINUOUS
 62
     1
 10
111.7
 20
136.5
 30
0.0
 11
101.0
 21
136.5
 31
0.0
  0
LINE
  8
0
  6
CONTINUOUS
 62
     1
 10
112.0
 20
109.8
 30
0.0
 11
112.0
 21
136.2
 31
0.0
  0
ARC
  8
0
  6
CONTINUOUS
 62
     1
 10
111.7
 20
136.2
 30
0.0
 40
0.3
 50
0.0
 51
90.0
  0
LINE
  8
0
  6
LTYPE0
 62
     2
 10
87.6
 20
123.0
 30
0.0
 11
119.0
 21
123.0
 31
0.0
  0
LINE
  8
0
  6
CONTINUOUS
 62
     1
 10
94.8
 20
98.0
 30
0.0
 11
101.0
 21
98.0
 31
0.0
  0
ARC
  8
0
  6
CONTINUOUS
 62
     1
 10
94.8
 20
98.8
 30
0.0
 40
0.8
 50
180.0
 51
270.0
  0
LINE
  8
0
  6
CONTINUOUS
 62
     1
 10
101.0
 20
148.0
 30
0.0
 11
94.8
 21
148.0
 31
0.0
  0
LINE
  8
0
  6
CONTINUOUS
 62
     1
 10
94.0
 20
147.2
 30
0.0
 11
94.0
 21
98.8
 31
0.0
  0
ARC
  8
0
  6
CONTINUOUS
 62
     1
 10
94.8
 20
147.2
 30
0.0
 40
0.8
 50
90.0
 51
180.0
  0
LINE
  8
0
  6
CONTINUOUS
 62
     2
 10
32.823978297
 20
114.353589838
 30
0.0
 11
30.545517328
 21
113.5
 31
0.0
  0
LINE
  8
0
  6
CONTINUOUS
 62
     2
 10
32.423978297
 20
115.046410162
 30
0.0
 11
30.545517328
 21
113.5
 31
0.0
  0
LINE
  8
0
  6
CONTINUOUS
 62
     2
 10
41.650696819
 20
120.511033252
 30
0.0
 11
32.423978297
 21
115.046410162
 31
0.0
  0
LINE
  8
0
  6
CONTINUOUS
 62
     2
 10
42.169839976
 20
119.611850927
 30
0.0
 11
32.823978297
 21
114.353589838
 31
0.0
  0
LINE
  8
0
  6
CONTINUOUS
 62
     2
 10
48.069839976
 20
121.511850927
 30
0.0
 11
48.639371763
 21
119.077588504
 31
0.0
  0
LINE
  8
0
  6
CONTINUOUS
 62
     2
 10
48.069839976
 20
121.511850927
 30
0.0
 11
49.780200183
 21
119.688483722
 31
0.0
  0
LINE
  8
0
  6
CONTINUOUS
 62
     2
 10
48.069839976
 20
121.511850927
 30
0.0
 11
64.669839976
 21
90.511850927
 31
0.0
  0
LINE
  8
0
  6
CONTINUOUS
 62
     2
 10
64.669839976
 20
90.511850927
 30
0.0
 11
89.269839976
 21
90.511850927
 31
0.0
  0
LINE
  8
0
  6
CONTINUOUS
 62
     2
 10
105.269839976
 20
104.211850927
 30
0.0
 11
105.916887589
 21
101.797036361
 31
0.0
  0
LINE
  8
0
  6
CONTINUOUS
 62
     2
 10
105.269839976
 20
104.211850927
 30
0.0
 11
107.037606929
 21
102.444083974
 31
0.0
  0
LINE
  8
0
  6
CONTINUOUS
 62
     2
 10
110.81240256
 20
94.611850927
 30
0.0
 11
129.872061376
 21
94.611850927
 31
0.0
  0
LINE
  8
0
  6
CONTINUOUS
 62
     2
 10
105.269839976
 20
104.211850927
 30
0.0
 11
110.81240256
 21
94.611850927
 31
0.0
  0
ARC
  8
0
  6
CONTINUOUS
 62
     2
 10
114.411159232
 20
129.570844864
 30
0.0
 40
0.588840768
 50
270.0
 51
0.0
  0
ARC
  8
0
  6
CONTINUOUS
 62
     2
 10
114.411159232
 20
130.429155136
 30
0.0
 40
0.588840768
 50
0.0
 51
90.0
  0
LINE
  8
0
  6
CONTINUOUS
 62
     2
 10
115.0
 20
130.429155136
 30
0.0
 11
115.0
 21
129.570844864
 31
0.0
  0
LINE
  8
0
  6
CONTINUOUS
 62
     2
 10
114.411159232
 20
128.982004096
 30
0.0
 11
114.211552192
 21
128.982004096
 31
0.0
  0
LINE
  8
0
  6
CONTINUOUS
 62
     2
 10
114.211552192
 20
128.982004096
 30
0.0
 11
114.211552192
 21
131.017995904
 31
0.0
  0
LINE
  8
0
  6
CONTINUOUS
 62
     2
 10
114.211552192
 20
131.017995904
 30
0.0
 11
114.411159285
 21
131.017995904
 31
0.0
  0
LINE
  8
0
  6
CONTINUOUS
 62
     2
 10
113.932102336
 20
131.09783872
 30
0.0
 11
114.20157184
 21
131.09783872
 31
0.0
  0
LINE
  8
0
  6
CONTINUOUS
 62
     2
 10
114.20157184
 20
131.09783872
 30
0.0
 11
114.20157184
 21
128.901163245
 31
0.0
  0
LINE
  8
0
  6
CONTINUOUS
 62
     2
 10
114.20157184
 20
128.901163245
 30
0.0
 11
113.932102336
 21
128.901163245
 31
0.0
  0
LINE
  8
0
  6
CONTINUOUS
 62
     2
 10
113.932102336
 20
128.901163245
 30
0.0
 11
113.932102336
 21
131.09783872
 31
0.0
  0
LINE
  8
0
  6
CONTINUOUS
 62
     2
 10
113.932102336
 20
130.023952845
 30
0.0
 11
114.20157184
 21
130.023952845
 31
0.0
  0
LINE
  8
0
  6
CONTINUOUS
 62
     2
 10
114.20157184
 20
129.984031437
 30
0.0
 11
113.932102336
 21
129.984031437
 31
0.0
  0
LINE
  8
0
  6
CONTINUOUS
 62
     2
 10
113.742475648
 20
128.732495296
 30
0.0
 11
113.932102336
 21
128.732495296
 31
0.0
  0
LINE
  8
0
  6
CONTINUOUS
 62
     2
 10
113.932102336
 20
128.732495296
 30
0.0
 11
113.932102336
 21
131.267504704
 31
0.0
  0
LINE
  8
0
  6
CONTINUOUS
 62
     2
 10
113.932102336
 20
131.267504704
 30
0.0
 11
113.742475648
 21
131.267504704
 31
0.0
  0
LINE
  8
0
  6
CONTINUOUS
 62
     2
 10
113.742475648
 20
131.267504704
 30
0.0
 11
113.742475648
 21
128.732495296
 31
0.0
  0
LINE
  8
0
  6
LTYPE3
 62
     2
 10
110.838193216
 20
130.0
 30
0.0
 11
115.918192384
 21
130.0
 31
0.0
  0
LINE
  8
0
  6
CONTINUOUS
 62
     2
 10
112.0
 20
130.79842816
 30
0.0
 11
113.742475648
 21
130.79842816
 31
0.0
  0
LINE
  8
0
  6
CONTINUOUS
 62
     2
 10
113.742475648
 20
129.20157184
 30
0.0
 11
112.0
 21
129.20157184
 31
0.0
  0
LINE
  8
0
  6
CONTINUOUS
 62
     2
 10
114.686426304
 20
129.050305251
 30
0.0
 11
115.333473917
 21
126.635490685
 31
0.0
  0
LINE
  8
0
  6
CONTINUOUS
 62
     2
 10
114.686426304
 20
129.050305251
 30
0.0
 11
116.454193257
 21
127.282538298
 31
0.0
  0
TEXT
  8
0
  6
CONTINUOUS
 62
     2
 10
64.669839976
 20
91.511850927
 30
0.3
 40
3.0
  1
機械的零位調整器
 50
0.0
 41
0.9
 51
0.0
  7
KANJI2
  0
TEXT
  8
0
  6
CONTINUOUS
 62
     2
 10
110.972061376
 20
95.611850927
 30
0.1
 40
3.0
  1
４－Ｍ８　ボルト
 50
0.0
 41
0.6
 51
0.0
  7
KANJI3
  0
LINE
  8
0
  6
LTYPE0
 62
     2
 10
211.0
 20
123.0
 30
0.0
 11
144.0
 21
123.0
 31
0.0
  0
TEXT
  8
0
  6
CONTINUOUS
 62
     2
 10
166.0
 20
28.0
 30
0.3
 40
3.0
  1
パネルカット
 50
0.0
 41
0.9
 51
0.0
  7
KANJI2
  0
LINE
  8
0
  6
CONTINUOUS
 62
     2
 10
165.0
 20
27.0
 30
0.0
 11
185.0
 21
27.0
 31
0.0
  0
TEXT
  8
0
  6
CONTINUOUS
 62
     2
 10
105.2
 20
116.73
 30
0.3
 40
3.0
  1
φ１３５
 50
90.0
 41
0.6
 51
0.0
  7
KANJI0
  0
CIRCLE
  8
0
  6
CONTINUOUS
 62
     2
 10
192.0
 20
71.0
 30
0.0
 40
0.9
  0
CIRCLE
  8
0
  6
CONTINUOUS
 62
     2
 10
156.0
 20
71.0
 30
0.0
 40
0.9
  0
CIRCLE
  8
0
  6
CONTINUOUS
 62
     2
 10
192.0
 20
35.0
 30
0.0
 40
0.9
  0
CIRCLE
  8
0
  6
CONTINUOUS
 62
     2
 10
156.0
 20
35.0
 30
0.0
 40
0.9
  0
LINE
  8
0
  6
CONTINUOUS
 62
     2
 10
192.7
 20
34.141154273
 30
0.0
 11
193.347047613
 21
31.726339707
 31
0.0
  0
LINE
  8
0
  6
CONTINUOUS
 62
     2
 10
192.7
 20
34.141154273
 30
0.0
 11
194.467766953
 21
32.37338732
 31
0.0
  0
LINE
  8
0
  6
CONTINUOUS
 62
     2
 10
192.7
 20
34.141154273
 30
0.0
 11
197.549742261
 21
25.741154273
 31
0.0
  0
LINE
  8
0
  6
CONTINUOUS
 62
     2
 10
197.549742261
 20
25.741154273
 30
0.0
 11
209.249742261
 21
25.741154273
 31
0.0
  0
TEXT
  8
0
  6
CONTINUOUS
 62
     2
 10
197.549742261
 20
26.741154273
 30
0.3
 40
3.0
  1
４－φ９
 50
0.0
 41
0.9
 51
0.0
  7
KANJI2
  0
TEXT
  8
0
  6
CONTINUOUS
 62
     3
 10
233.0
 20
12.0
 30
0.0
 40
6.0
  1
ＭＳ－１３２３４
 50
0.0
 41
0.9
 51
0.0
  7
KANJI4
  0
CIRCLE
  8
0
  6
CONTINUOUS
 62
     2
 10
174.0
 20
114.6
 30
0.0
 40
1.0
  0
CIRCLE
  8
0
  6
CONTINUOUS
 62
     2
 10
174.0
 20
114.6
 30
0.0
 40
3.7
  0
CIRCLE
  8
0
  6
CONTINUOUS
 62
     2
 10
171.5
 20
114.6
 30
0.0
 40
0.32
  0
CIRCLE
  8
0
  6
CONTINUOUS
 62
     2
 10
171.5
 20
114.6
 30
0.0
 40
0.65
  0
CIRCLE
  8
0
  6
CONTINUOUS
 62
     2
 10
176.5
 20
114.6
 30
0.0
 40
0.32
  0
CIRCLE
  8
0
  6
CONTINUOUS
 62
     2
 10
176.5
 20
114.6
 30
0.0
 40
0.65
  0
CIRCLE
  8
0
  6
CONTINUOUS
 62
     2
 10
174.0
 20
119.0
 30
0.0
 40
0.32
  0
CIRCLE
  8
0
  6
CONTINUOUS
 62
     2
 10
170.189488223
 20
112.4
 30
0.0
 40
0.32
  0
CIRCLE
  8
0
  6
CONTINUOUS
 62
     2
 10
177.810511777
 20
112.4
 30
0.0
 40
0.32
  0
LINE
  8
0
  6
CONTINUOUS
 62
     2
 10
172.0
 20
117.712876483
 30
0.0
 11
173.558513178
 21
119.406311932
 31
0.0
  0
LINE
  8
0
  6
CONTINUOUS
 62
     2
 10
176.0
 20
117.712876483
 30
0.0
 11
174.441486822
 21
119.406311932
 31
0.0
  0
LINE
  8
0
  6
CONTINUOUS
 62
     2
 10
170.304169887
 20
114.775612566
 30
0.0
 11
169.616868357
 21
112.579182837
 31
0.0
  0
LINE
  8
0
  6
CONTINUOUS
 62
     2
 10
172.304169887
 20
111.311510951
 30
0.0
 11
170.058355179
 21
111.814505231
 31
0.0
  0
LINE
  8
0
  6
CONTINUOUS
 62
     2
 10
175.695830113
 20
111.311510951
 30
0.0
 11
177.941644821
 21
111.814505231
 31
0.0
  0
LINE
  8
0
  6
CONTINUOUS
 62
     2
 10
177.695830113
 20
114.775612566
 30
0.0
 11
178.383131643
 21
112.579182837
 31
0.0
  0
ARC
  8
0
  6
CONTINUOUS
 62
     2
 10
174.0
 20
119.0
 30
0.0
 40
0.6
 50
42.624179714
 51
137.375820286
  0
ARC
  8
0
  6
CONTINUOUS
 62
     2
 10
170.189488223
 20
112.4
 30
0.0
 40
0.6
 50
162.624179714
 51
257.375820286
  0
ARC
  8
0
  6
CONTINUOUS
 62
     2
 10
177.810511777
 20
112.4
 30
0.0
 40
0.6
 50
282.624179714
 51
17.375820286
  0
LINE
  8
0
  6
CONTINUOUS
 62
     1
 10
112.0
 20
119.6
 30
0.0
 11
112.8
 21
119.6
 31
0.0
  0
LINE
  8
0
  6
CONTINUOUS
 62
     1
 10
112.8
 20
117.712876483
 30
0.0
 11
112.0
 21
117.712876483
 31
0.0
  0
LINE
  8
0
  6
CONTINUOUS
 62
     1
 10
112.0
 20
114.6
 30
0.0
 11
112.8
 21
114.6
 31
0.0
  0
LINE
  8
0
  6
CONTINUOUS
 62
     1
 10
112.8
 20
114.6
 30
0.0
 11
112.8
 21
111.311510951
 31
0.0
  0
LINE
  8
0
  6
CONTINUOUS
 62
     1
 10
112.8
 20
111.311510951
 30
0.0
 11
112.0
 21
111.311510951
 31
0.0
  0
ARC
  8
0
  6
CONTINUOUS
 62
     1
 10
118.0
 20
117.9
 30
0.0
 40
0.4
 50
0.0
 51
90.0
  0
LINE
  8
0
  6
CONTINUOUS
 62
     1
 10
118.0
 20
110.9
 30
0.0
 11
112.0
 21
110.9
 31
0.0
  0
LINE
  8
0
  6
CONTINUOUS
 62
     1
 10
118.4
 20
117.9
 30
0.0
 11
118.4
 21
111.3
 31
0.0
  0
ARC
  8
0
  6
CONTINUOUS
 62
     1
 10
118.0
 20
111.3
 30
0.0
 40
0.4
 50
270.0
 51
0.0
  0
LINE
  8
0
  6
CONTINUOUS
 62
     1
 10
118.0
 20
118.3
 30
0.0
 11
113.0
 21
118.3
 31
0.0
  0
ARC
  8
0
  6
CONTINUOUS
 62
     1
 10
113.0
 20
118.5
 30
0.0
 40
0.2
 50
180.0
 51
270.0
  0
LINE
  8
0
  6
CONTINUOUS
 62
     1
 10
112.8
 20
119.6
 30
0.0
 11
112.8
 21
117.712876483
 31
0.0
  0
LINE
  8
0
  6
CONTINUOUS
 62
     5
 10
118.8
 20
116.0
 30
0.0
 11
118.8
 21
113.2
 31
0.0
  0
LINE
  8
0
  6
CONTINUOUS
 62
     5
 10
118.8
 20
113.2
 30
0.0
 11
118.6
 21
113.2
 31
0.0
  0
LINE
  8
0
  6
CONTINUOUS
 62
     5
 10
118.6
 20
116.0
 30
0.0
 11
118.8
 21
116.0
 31
0.0
  0
LINE
  8
0
  6
CONTINUOUS
 62
     5
 10
118.4
 20
115.8
 30
0.0
 11
118.4
 21
113.4
 31
0.0
  0
ARC
  8
0
  6
CONTINUOUS
 62
     5
 10
114.0
 20
114.6
 30
0.0
 40
5.0
 50
343.739795292
 51
16.260204708
  0
LINE
  8
0
  6
CONTINUOUS
 62
     5
 10
118.6
 20
115.8
 30
0.0
 11
118.8
 21
115.8
 31
0.0
  0
LINE
  8
0
  6
CONTINUOUS
 62
     5
 10
118.6
 20
115.6
 30
0.0
 11
118.8
 21
115.6
 31
0.0
  0
LINE
  8
0
  6
CONTINUOUS
 62
     5
 10
118.6
 20
115.4
 30
0.0
 11
118.8
 21
115.4
 31
0.0
  0
LINE
  8
0
  6
CONTINUOUS
 62
     5
 10
118.6
 20
115.2
 30
0.0
 11
118.8
 21
115.2
 31
0.0
  0
LINE
  8
0
  6
CONTINUOUS
 62
     5
 10
118.6
 20
115.0
 30
0.0
 11
118.8
 21
115.0
 31
0.0
  0
LINE
  8
0
  6
CONTINUOUS
 62
     5
 10
118.6
 20
114.8
 30
0.0
 11
118.8
 21
114.8
 31
0.0
  0
LINE
  8
0
  6
CONTINUOUS
 62
     5
 10
118.6
 20
114.6
 30
0.0
 11
118.8
 21
114.6
 31
0.0
  0
LINE
  8
0
  6
CONTINUOUS
 62
     5
 10
118.6
 20
114.4
 30
0.0
 11
118.8
 21
114.4
 31
0.0
  0
LINE
  8
0
  6
CONTINUOUS
 62
     5
 10
118.6
 20
114.2
 30
0.0
 11
118.8
 21
114.2
 31
0.0
  0
LINE
  8
0
  6
CONTINUOUS
 62
     5
 10
118.6
 20
114.0
 30
0.0
 11
118.8
 21
114.0
 31
0.0
  0
LINE
  8
0
  6
CONTINUOUS
 62
     5
 10
118.6
 20
113.8
 30
0.0
 11
118.8
 21
113.8
 31
0.0
  0
LINE
  8
0
  6
CONTINUOUS
 62
     5
 10
118.6
 20
113.6
 30
0.0
 11
118.8
 21
113.6
 31
0.0
  0
LINE
  8
0
  6
CONTINUOUS
 62
     5
 10
118.6
 20
113.4
 30
0.0
 11
118.8
 21
113.4
 31
0.0
  0
LINE
  8
0
  6
CONTINUOUS
 62
     5
 10
118.5
 20
115.8
 30
0.0
 11
118.4
 21
115.8
 31
0.0
  0
ARC
  8
0
  6
CONTINUOUS
 62
     5
 10
118.5
 20
115.9
 30
0.0
 40
0.1
 50
270.0
 51
0.0
  0
LINE
  8
0
  6
CONTINUOUS
 62
     5
 10
118.6
 20
113.2
 30
0.0
 11
118.6
 21
116.0
 31
0.0
  0
ARC
  8
0
  6
CONTINUOUS
 62
     5
 10
118.5
 20
113.3
 30
0.0
 40
0.1
 50
0.0
 51
90.0
  0
LINE
  8
0
  6
CONTINUOUS
 62
     5
 10
118.4
 20
113.4
 30
0.0
 11
118.5
 21
113.4
 31
0.0
  0
LINE
  8
0
  6
CONTINUOUS
 62
     5
 10
112.8
 20
118.475
 30
0.0
 11
113.0
 21
118.475
 31
0.0
  0
ARC
  8
0
  6
CONTINUOUS
 62
     5
 10
113.0
 20
118.665
 30
0.0
 40
0.19
 50
270.0
 51
0.0
  0
LINE
  8
0
  6
CONTINUOUS
 62
     5
 10
113.19
 20
118.665
 30
0.0
 11
113.19
 21
118.94
 31
0.0
  0
LINE
  8
0
  6
CONTINUOUS
 62
     5
 10
113.19
 20
118.94
 30
0.0
 11
112.98
 21
118.94
 31
0.0
  0
LINE
  8
0
  6
CONTINUOUS
 62
     5
 10
112.98
 20
118.94
 30
0.0
 11
112.98
 21
119.06
 31
0.0
  0
LINE
  8
0
  6
CONTINUOUS
 62
     5
 10
112.98
 20
119.06
 30
0.0
 11
113.19
 21
119.06
 31
0.0
  0
LINE
  8
0
  6
CONTINUOUS
 62
     5
 10
113.19
 20
119.06
 30
0.0
 11
113.19
 21
119.335
 31
0.0
  0
ARC
  8
0
  6
CONTINUOUS
 62
     5
 10
113.0
 20
119.335
 30
0.0
 40
0.19
 50
0.0
 51
90.0
  0
LINE
  8
0
  6
CONTINUOUS
 62
     5
 10
113.0
 20
119.525
 30
0.0
 11
112.8
 21
119.525
 31
0.0
  0
LINE
  8
0
  6
CONTINUOUS
 62
     5
 10
112.8
 20
111.875
 30
0.0
 11
113.0
 21
111.875
 31
0.0
  0
ARC
  8
0
  6
CONTINUOUS
 62
     5
 10
113.0
 20
112.065
 30
0.0
 40
0.19
 50
270.0
 51
0.0
  0
LINE
  8
0
  6
CONTINUOUS
 62
     5
 10
113.19
 20
112.065
 30
0.0
 11
113.19
 21
112.34
 31
0.0
  0
LINE
  8
0
  6
CONTINUOUS
 62
     5
 10
113.19
 20
112.34
 30
0.0
 11
112.98
 21
112.34
 31
0.0
  0
LINE
  8
0
  6
CONTINUOUS
 62
     5
 10
112.98
 20
112.34
 30
0.0
 11
112.98
 21
112.46
 31
0.0
  0
LINE
  8
0
  6
CONTINUOUS
 62
     5
 10
112.98
 20
112.46
 30
0.0
 11
113.19
 21
112.46
 31
0.0
  0
LINE
  8
0
  6
CONTINUOUS
 62
     5
 10
113.19
 20
112.46
 30
0.0
 11
113.19
 21
112.735
 31
0.0
  0
ARC
  8
0
  6
CONTINUOUS
 62
     5
 10
113.0
 20
112.735
 30
0.0
 40
0.19
 50
0.0
 51
90.0
  0
LINE
  8
0
  6
CONTINUOUS
 62
     5
 10
113.0
 20
112.925
 30
0.0
 11
112.8
 21
112.925
 31
0.0
  0
LINE
  8
4
  6
LTYPE0
 62
     2
 10
113.98
 20
112.4
 30
0.0
 11
111.98
 21
112.4
 31
0.0
  0
LINE
  8
4
  6
LTYPE0
 62
     2
 10
111.98
 20
119.0
 30
0.0
 11
113.98
 21
119.0
 31
0.0
  0
TEXT
  8
0
  6
CONTINUOUS
 62
     2
 10
120.235057865
 20
121.950305251
 30
0.1
 40
3.0
  1
２－Ｍ５　ターミナル
 50
0.0
 41
0.6
 51
0.0
  7
KANJI3
  0
POLYLINE
  8
0
  6
CONTINUOUS
 62
     2
 66
     1
  0
VERTEX
  8
0
  6
CONTINUOUS
 62
     2
 10
114.686426304
 20
129.050305251
 30
0.0
  0
VERTEX
  8
0
  6
CONTINUOUS
 62
     2
 10
119.362963484
 20
120.950305251
 30
0.0
  0
VERTEX
  8
0
  6
CONTINUOUS
 62
     2
 10
139.0
 20
120.950305251
 30
0.0
  0
SEQEND
  0
TEXT
  8
0
  6
CONTINUOUS
 62
     4
 10
246.5
 20
132.5
 30
0.1
 40
2.0
  1
□
 50
0.0
 41
0.7
 51
0.0
  7
KANJI5
  0
TEXT
  8
0
  6
CONTINUOUS
 62
     1
 10
233.7
 20
24.9
 30
0.4
 40
4.0
  1
広角度計器　外形図
 50
0.0
 41
0.9
 51
0.0
  7
KANJI6
  0
TEXT
  8
0
  6
CONTINUOUS
 62
     1
 10
233.7
 20
34.9
 30
0.4
 40
4.0
  1
□ＶＦ－２５Ｖ
 50
0.0
 41
0.9
 51
0.0
  7
KANJI6
  0
LINE
  8
4
  6
CONTINUOUS
 62
     2
 10
119.0
 20
118.3
 30
0.0
 11
128.4
 21
118.3
 31
0.0
  0
LINE
  8
4
  6
CONTINUOUS
 62
     2
 10
126.4
 20
118.3
 30
0.0
 11
125.752952387
 21
115.885185434
 31
0.0
  0
LINE
  8
4
  6
CONTINUOUS
 62
     2
 10
126.4
 20
118.3
 30
0.0
 11
127.047047613
 21
115.885185434
 31
0.0
  0
LINE
  8
4
  6
CONTINUOUS
 62
     2
 10
126.4
 20
118.3
 30
0.0
 11
126.4
 21
110.9
 31
0.0
  0
LINE
  8
4
  6
CONTINUOUS
 62
     2
 10
126.4
 20
110.9
 30
0.0
 11
127.047047613
 21
113.314814566
 31
0.0
  0
LINE
  8
4
  6
CONTINUOUS
 62
     2
 10
126.4
 20
110.9
 30
0.0
 11
125.752952387
 21
113.314814566
 31
0.0
  0
LINE
  8
4
  6
CONTINUOUS
 62
     2
 10
119.0
 20
110.9
 30
0.0
 11
128.4
 21
110.9
 31
0.0
  0
TEXT
  8
4
  6
CONTINUOUS
 62
     2
 10
125.4
 20
112.65
 30
0.3
 40
3.0
  1
３７
 50
90.0
 41
0.6
 51
0.0
  7
KANJI7
  0
LINE
  8
4
  6
CONTINUOUS
 62
     2
 10
118.4
 20
110.300001907
 30
0.0
 11
118.4
 21
98.9
 31
0.0
  0
LINE
  8
4
  6
CONTINUOUS
 62
     2
 10
118.4
 20
100.9
 30
0.0
 11
120.814814566
 21
100.252952387
 31
0.0
  0
LINE
  8
4
  6
CONTINUOUS
 62
     2
 10
118.4
 20
100.9
 30
0.0
 11
120.814814566
 21
101.547047613
 31
0.0
  0
LINE
  8
4
  6
CONTINUOUS
 62
     2
 10
122.15
 20
100.9
 30
0.0
 11
118.4
 21
100.9
 31
0.0
  0
POLYLINE
  8
4
  6
CONTINUOUS
 62
     2
 66
     1
  0
VERTEX
  8
4
  6
CONTINUOUS
 62
     2
 10
118.4
 20
100.9
 30
0.0
  0
VERTEX
  8
4
  6
CONTINUOUS
 62
     2
 10
112.0
 20
100.9
 30
0.0
  0
VERTEX
  8
4
  6
CONTINUOUS
 62
     2
 10
108.25
 20
100.9
 30
0.0
  0
SEQEND
  0
LINE
  8
4
  6
CONTINUOUS
 62
     2
 10
112.0
 20
100.9
 30
0.0
 11
109.585185434
 21
101.547047613
 31
0.0
  0
LINE
  8
4
  6
CONTINUOUS
 62
     2
 10
112.0
 20
100.9
 30
0.0
 11
109.585185434
 21
100.252952387
 31
0.0
  0
LINE
  8
4
  6
CONTINUOUS
 62
     2
 10
112.0
 20
109.3
 30
0.0
 11
112.0
 21
98.9
 31
0.0
  0
TEXT
  8
4
  6
CONTINUOUS
 62
     2
 10
113.25
 20
101.9
 30
0.3
 40
3.0
  1
３２
 50
0.0
 41
0.6
 51
0.0
  7
KANJI7
  0
TEXT
  8
4
  6
CONTINUOUS
 62
     2
 10
142.422641509
 20
88.1
 30
0.3
 40
3.0
  1
感度調整用抵抗器
 50
0.0
 41
0.9
 51
0.0
  7
KANJI8
  0
LINE
  8
4
  6
CONTINUOUS
 62
     2
 10
142.422641509
 20
87.1
 30
0.0
 11
166.375471698
 21
87.1
 31
0.0
  0
LINE
  8
4
  6
CONTINUOUS
 62
     2
 10
173.4
 20
112.6
 30
0.0
 11
173.382486883
 21
110.100061343
 31
0.0
  0
LINE
  8
4
  6
CONTINUOUS
 62
     2
 10
173.4
 20
112.6
 30
0.0
 11
172.134863867
 21
110.443746173
 31
0.0
  0
LINE
  8
4
  6
CONTINUOUS
 62
     2
 10
173.4
 20
112.6
 30
0.0
 11
166.375471698
 21
87.1
 31
0.0
  0
ENDSEC
  0
EOF
